  0
SECTION
  2
HEADER
  9
$ACADVER
  1
AC1021
  9
$ACADMAINTVER
 70
    50
  9
$DWGCODEPAGE
  3
ANSI_1252
  9
$INSBASE
 10
0.0
 20
0.0
 30
0.0
  9
$EXTMIN
 10
3445.18824859152
 20
2322.761918600988
 30
0.0
  9
$EXTMAX
 10
3859.579918148914
 20
2607.761918600988
 30
0.0
  9
$LIMMIN
 10
0.0
 20
0.0
  9
$LIMMAX
 10
12.0
 20
9.0
  9
$ORTHOMODE
 70
     0
  9
$REGENMODE
 70
     1
  9
$FILLMODE
 70
     1
  9
$QTEXTMODE
 70
     0
  9
$MIRRTEXT
 70
     0
  9
$LTSCALE
 40
1.0
  9
$ATTMODE
 70
     1
  9
$TEXTSIZE
 40
0.2
  9
$TRACEWID
 40
0.05
  9
$TEXTSTYLE
  7
Standard
  9
$CLAYER
  8
0
  9
$CELTYPE
  6
ByLayer
  9
$CECOLOR
 62
   256
  9
$CELTSCALE
 40
1.0
  9
$DISPSILH
 70
     0
  9
$DIMSCALE
 40
1.0
  9
$DIMASZ
 40
0.18
  9
$DIMEXO
 40
0.0625
  9
$DIMDLI
 40
0.38
  9
$DIMRND
 40
0.0
  9
$DIMDLE
 40
0.0
  9
$DIMEXE
 40
0.18
  9
$DIMTP
 40
0.0
  9
$DIMTM
 40
0.0
  9
$DIMTXT
 40
0.18
  9
$DIMCEN
 40
0.09
  9
$DIMTSZ
 40
0.0
  9
$DIMTOL
 70
     0
  9
$DIMLIM
 70
     0
  9
$DIMTIH
 70
     1
  9
$DIMTOH
 70
     1
  9
$DIMSE1
 70
     0
  9
$DIMSE2
 70
     0
  9
$DIMTAD
 70
     0
  9
$DIMZIN
 70
     0
  9
$DIMBLK
  1

  9
$DIMASO
 70
     1
  9
$DIMSHO
 70
     1
  9
$DIMPOST
  1

  9
$DIMAPOST
  1

  9
$DIMALT
 70
     0
  9
$DIMALTD
 70
     2
  9
$DIMALTF
 40
25.4
  9
$DIMLFAC
 40
1.0
  9
$DIMTOFL
 70
     0
  9
$DIMTVP
 40
0.0
  9
$DIMTIX
 70
     0
  9
$DIMSOXD
 70
     0
  9
$DIMSAH
 70
     0
  9
$DIMBLK1
  1

  9
$DIMBLK2
  1

  9
$DIMSTYLE
  2
Standard
  9
$DIMCLRD
 70
     0
  9
$DIMCLRE
 70
     0
  9
$DIMCLRT
 70
     0
  9
$DIMTFAC
 40
1.0
  9
$DIMGAP
 40
0.09
  9
$DIMJUST
 70
     0
  9
$DIMSD1
 70
     0
  9
$DIMSD2
 70
     0
  9
$DIMTOLJ
 70
     1
  9
$DIMTZIN
 70
     0
  9
$DIMALTZ
 70
     0
  9
$DIMALTTZ
 70
     0
  9
$DIMUPT
 70
     0
  9
$DIMDEC
 70
     4
  9
$DIMTDEC
 70
     4
  9
$DIMALTU
 70
     2
  9
$DIMALTTD
 70
     2
  9
$DIMTXSTY
  7
Standard
  9
$DIMAUNIT
 70
     1
  9
$DIMADEC
 70
     0
  9
$DIMALTRND
 40
0.0
  9
$DIMAZIN
 70
     0
  9
$DIMDSEP
 70
    46
  9
$DIMATFIT
 70
     3
  9
$DIMFRAC
 70
     0
  9
$DIMLDRBLK
  1

  9
$DIMLUNIT
 70
     2
  9
$DIMLWD
 70
    -2
  9
$DIMLWE
 70
    -2
  9
$DIMTMOVE
 70
     0
  9
$DIMFXL
 40
1.0
  9
$DIMFXLON
 70
     0
  9
$DIMJOGANG
 40
0.7853981633974483
  9
$DIMTFILL
 70
     0
  9
$DIMTFILLCLR
 70
     0
  9
$DIMARCSYM
 70
     0
  9
$DIMLTYPE
  6

  9
$DIMLTEX1
  6

  9
$DIMLTEX2
  6

  9
$LUNITS
 70
     2
  9
$LUPREC
 70
     4
  9
$SKETCHINC
 40
0.1
  9
$FILLETRAD
 40
0.0
  9
$AUNITS
 70
     0
  9
$AUPREC
 70
     0
  9
$MENU
  1
.
  9
$ELEVATION
 40
0.0
  9
$PELEVATION
 40
0.0
  9
$THICKNESS
 40
0.0
  9
$LIMCHECK
 70
     0
  9
$CHAMFERA
 40
0.0
  9
$CHAMFERB
 40
0.0
  9
$CHAMFERC
 40
0.0
  9
$CHAMFERD
 40
0.0
  9
$SKPOLY
 70
     0
  9
$TDCREATE
 40
2459772.756608797
  9
$TDUCREATE
 40
2459772.256608796
  9
$TDUPDATE
 40
2459772.756608797
  9
$TDUUPDATE
 40
2459772.256608796
  9
$TDINDWG
 40
0.0000115741
  9
$TDUSRTIMER
 40
0.0000115741
  9
$USRTIMER
 70
     1
  9
$ANGBASE
 50
0.0
  9
$ANGDIR
 70
     0
  9
$PDMODE
 70
     0
  9
$PDSIZE
 40
0.0
  9
$PLINEWID
 40
0.0
  9
$SPLFRAME
 70
     0
  9
$SPLINETYPE
 70
     6
  9
$SPLINESEGS
 70
     8
  9
$HANDSEED
  5
2A8
  9
$SURFTAB1
 70
     6
  9
$SURFTAB2
 70
     6
  9
$SURFTYPE
 70
     6
  9
$SURFU
 70
     6
  9
$SURFV
 70
     6
  9
$UCSBASE
  2

  9
$UCSNAME
  2

  9
$UCSORG
 10
0.0
 20
0.0
 30
0.0
  9
$UCSXDIR
 10
1.0
 20
0.0
 30
0.0
  9
$UCSYDIR
 10
0.0
 20
1.0
 30
0.0
  9
$UCSORTHOREF
  2

  9
$UCSORTHOVIEW
 70
     0
  9
$UCSORGTOP
 10
0.0
 20
0.0
 30
0.0
  9
$UCSORGBOTTOM
 10
0.0
 20
0.0
 30
0.0
  9
$UCSORGLEFT
 10
0.0
 20
0.0
 30
0.0
  9
$UCSORGRIGHT
 10
0.0
 20
0.0
 30
0.0
  9
$UCSORGFRONT
 10
0.0
 20
0.0
 30
0.0
  9
$UCSORGBACK
 10
0.0
 20
0.0
 30
0.0
  9
$PUCSBASE
  2

  9
$PUCSNAME
  2

  9
$PUCSORG
 10
0.0
 20
0.0
 30
0.0
  9
$PUCSXDIR
 10
1.0
 20
0.0
 30
0.0
  9
$PUCSYDIR
 10
0.0
 20
1.0
 30
0.0
  9
$PUCSORTHOREF
  2

  9
$PUCSORTHOVIEW
 70
     0
  9
$PUCSORGTOP
 10
0.0
 20
0.0
 30
0.0
  9
$PUCSORGBOTTOM
 10
0.0
 20
0.0
 30
0.0
  9
$PUCSORGLEFT
 10
0.0
 20
0.0
 30
0.0
  9
$PUCSORGRIGHT
 10
0.0
 20
0.0
 30
0.0
  9
$PUCSORGFRONT
 10
0.0
 20
0.0
 30
0.0
  9
$PUCSORGBACK
 10
0.0
 20
0.0
 30
0.0
  9
$USERI1
 70
     0
  9
$USERI2
 70
     0
  9
$USERI3
 70
     0
  9
$USERI4
 70
     0
  9
$USERI5
 70
     0
  9
$USERR1
 40
0.0
  9
$USERR2
 40
0.0
  9
$USERR3
 40
0.0
  9
$USERR4
 40
0.0
  9
$USERR5
 40
0.0
  9
$WORLDVIEW
 70
     1
  9
$SHADEDGE
 70
     3
  9
$SHADEDIF
 70
    70
  9
$TILEMODE
 70
     0
  9
$MAXACTVP
 70
    64
  9
$PINSBASE
 10
0.0
 20
0.0
 30
0.0
  9
$PLIMCHECK
 70
     0
  9
$PEXTMIN
 10
-3.179323264254881
 20
-3.79528158292931
 30
0.0
  9
$PEXTMAX
 10
293.8206767356985
 20
202.4547184170706
 30
0.0
  9
$PLIMMIN
 10
0.0
 20
0.0
  9
$PLIMMAX
 10
12.0
 20
9.0
  9
$UNITMODE
 70
     0
  9
$VISRETAIN
 70
     1
  9
$PLINEGEN
 70
     0
  9
$PSLTSCALE
 70
     1
  9
$TREEDEPTH
 70
  3020
  9
$CMLSTYLE
  2
Standard
  9
$CMLJUST
 70
     0
  9
$CMLSCALE
 40
1.0
  9
$PROXYGRAPHICS
 70
     1
  9
$MEASUREMENT
 70
     1
  9
$CELWEIGHT
370
    -1
  9
$ENDCAPS
280
     0
  9
$JOINSTYLE
280
     0
  9
$LWDISPLAY
290
     0
  9
$INSUNITS
 70
     4
  9
$HYPERLINKBASE
  1

  9
$STYLESHEET
  1

  9
$XEDIT
290
     1
  9
$CEPSNTYPE
380
     0
  9
$PSTYLEMODE
290
     1
  9
$FINGERPRINTGUID
  2
{104EAD77-0A73-E64F-B458-0C286B1594A2}
  9
$VERSIONGUID
  2
{B7069C72-FB7A-344E-ACD3-23C0B352A770}
  9
$EXTNAMES
290
     1
  9
$PSVPSCALE
 40
0.0
  9
$OLESTARTUP
290
     0
  9
$SORTENTS
280
   127
  9
$INDEXCTL
280
     0
  9
$HIDETEXT
280
     1
  9
$XCLIPFRAME
290
     0
  9
$HALOGAP
280
     0
  9
$OBSCOLOR
 70
   257
  9
$OBSLTYPE
280
     0
  9
$INTERSECTIONDISPLAY
280
     0
  9
$INTERSECTIONCOLOR
 70
   257
  9
$DIMASSOC
280
     2
  9
$PROJECTNAME
  1

  9
$CAMERADISPLAY
290
     0
  9
$LENSLENGTH
 40
50.0
  9
$CAMERAHEIGHT
 40
0.0
  9
$STEPSPERSEC
 40
2.0
  9
$STEPSIZE
 40
6.0
  9
$3DDWFPREC
 40
2.0
  9
$PSOLWIDTH
 40
0.25
  9
$PSOLHEIGHT
 40
4.0
  9
$LOFTANG1
 40
1.570796326794896
  9
$LOFTANG2
 40
1.570796326794896
  9
$LOFTMAG1
 40
0.0
  9
$LOFTMAG2
 40
0.0
  9
$LOFTPARAM
 70
     7
  9
$LOFTNORMALS
280
     1
  9
$LATITUDE
 40
0.0
  9
$LONGITUDE
 40
0.0
  9
$NORTHDIRECTION
 40
0.0
  9
$TIMEZONE
 70
     0
  9
$LIGHTGLYPHDISPLAY
280
     1
  9
$TILEMODELIGHTSYNCH
280
     1
  9
$CMATERIAL
347
11
  9
$SOLIDHIST
280
     0
  9
$SHOWHIST
280
     1
  9
$DWFFRAME
280
     2
  9
$DGNFRAME
280
     0
  9
$REALWORLDSCALE
290
     1
  9
$INTERFERECOLOR
 62
     1
  9
$INTERFEREOBJVS
345
33
  9
$INTERFEREVPVS
346
30
  9
$CSHADOW
280
     0
  9
$SHADOWPLANELOCATION
 40
0.0
  0
ENDSEC
  0
SECTION
  2
CLASSES
  0
CLASS
  1
ACDBDICTIONARYWDFLT
  2
AcDbDictionaryWithDefault
  3
ObjectDBX Classes
 90
        0
 91
        1
280
     0
281
     0
  0
CLASS
  1
MATERIAL
  2
AcDbMaterial
  3
ObjectDBX Classes
 90
     1153
 91
        3
280
     0
281
     0
  0
CLASS
  1
VISUALSTYLE
  2
AcDbVisualStyle
  3
ObjectDBX Classes
 90
     4095
 91
       24
280
     0
281
     0
  0
CLASS
  1
SCALE
  2
AcDbScale
  3
ObjectDBX Classes
 90
     1153
 91
       17
280
     0
281
     0
  0
CLASS
  1
TABLESTYLE
  2
AcDbTableStyle
  3
ObjectDBX Classes
 90
     4095
 91
        1
280
     0
281
     0
  0
CLASS
  1
MLEADERSTYLE
  2
AcDbMLeaderStyle
  3
ACDB_MLEADERSTYLE_CLASS
 90
     4095
 91
        1
280
     0
281
     0
  0
CLASS
  1
ACDBSECTIONVIEWSTYLE
  2
AcDbSectionViewStyle
  3
ObjectDBX Classes
 90
     1025
 91
        1
280
     0
281
     0
  0
CLASS
  1
ACDBDETAILVIEWSTYLE
  2
AcDbDetailViewStyle
  3
ObjectDBX Classes
 90
     1025
 91
        1
280
     0
281
     0
  0
CLASS
  1
RASTERVARIABLES
  2
AcDbRasterVariables
  3
ISM
 90
        0
 91
        1
280
     0
281
     0
  0
CLASS
  1
DICTIONARYVAR
  2
AcDbDictionaryVar
  3
ObjectDBX Classes
 90
        0
 91
        6
280
     0
281
     0
  0
CLASS
  1
CELLSTYLEMAP
  2
AcDbCellStyleMap
  3
ObjectDBX Classes
 90
     1152
 91
        2
280
     0
281
     0
  0
CLASS
  1
SORTENTSTABLE
  2
AcDbSortentsTable
  3
ObjectDBX Classes
 90
        0
 91
        1
280
     0
281
     0
  0
CLASS
  1
SUN
  2
AcDbSun
  3
SCENEOE
 90
     1153
 91
        1
280
     0
281
     0
  0
ENDSEC
  0
SECTION
  2
TABLES
  0
TABLE
  2
VPORT
  5
8
330
0
100
AcDbSymbolTable
 70
     1
  0
VPORT
  5
57
330
8
100
AcDbSymbolTableRecord
100
AcDbViewportTableRecord
  2
*Active
 70
     0
 10
0.0
 20
0.0
 11
1.0
 21
1.0
 12
3652.384083370217
 22
2465.261918600988
 13
0.0
 23
0.0
 14
1.0
 24
1.0
 15
0.0
 25
0.0
 16
0.0
 26
0.0
 36
1.0
 17
0.0
 27
0.0
 37
0.0
 40
285.0
 41
1.454005858096119
 42
50.0
 43
0.0
 44
0.0
 50
0.0
 51
0.0
 71
     0
 72
  1000
 73
     1
 74
     1
 75
     0
 76
     0
 77
     0
 78
     0
281
     0
 65
     1
110
0.0
120
0.0
130
0.0
111
1.0
121
0.0
131
0.0
112
0.0
122
1.0
132
0.0
 79
     0
146
0.0
 60
     3
 61
     5
292
     1
282
     1
141
0.0
142
0.0
 63
   250
421
  3355443
361
26A
  0
ENDTAB
  0
TABLE
  2
LTYPE
  5
5
330
0
100
AcDbSymbolTable
 70
     3
  0
LTYPE
  5
5B
330
5
100
AcDbSymbolTableRecord
100
AcDbLinetypeTableRecord
  2
ByBlock
 70
     0
  3

 72
    65
 73
     0
 40
0.0
  0
LTYPE
  5
5C
330
5
100
AcDbSymbolTableRecord
100
AcDbLinetypeTableRecord
  2
ByLayer
 70
     0
  3

 72
    65
 73
     0
 40
0.0
  0
LTYPE
  5
5D
330
5
100
AcDbSymbolTableRecord
100
AcDbLinetypeTableRecord
  2
Continuous
 70
     0
  3
Solid line
 72
    65
 73
     0
 40
0.0
  0
LTYPE
  5
BD
330
5
100
AcDbSymbolTableRecord
100
AcDbLinetypeTableRecord
  2
Centre
 70
     0
  3

 72
    65
 73
     4
 40
9.5
 49
1.5
 74
     0
 49
-1.0
 74
     0
 49
6.0
 74
     0
 49
-1.0
 74
     0
  0
LTYPE
  5
C3
330
5
100
AcDbSymbolTableRecord
100
AcDbLinetypeTableRecord
  2
Dash
 70
     0
  3

 72
    65
 73
     2
 40
3.4
 49
2.2
 74
     0
 49
-1.199999999999999
 74
     0
  0
ENDTAB
  0
TABLE
  2
LAYER
  5
2
330
0
100
AcDbSymbolTable
 70
     3
  0
LAYER
  5
54
330
2
100
AcDbSymbolTableRecord
100
AcDbLayerTableRecord
  2
0
 70
     0
 62
     7
  6
Continuous
370
    -3
390
F
347
21
  0
LAYER
  5
BC
330
2
100
AcDbSymbolTableRecord
100
AcDbLayerTableRecord
  2
_ARDEX - WELDTEC_
 70
     0
 62
     7
  6
Continuous
370
     9
390
F
347
21
  0
LAYER
  5
BE
330
2
100
AcDbSymbolTableRecord
100
AcDbLayerTableRecord
  2
_ARDEX - BUTYNOL_
 70
     0
 62
     8
420
  8421504
  6
Continuous
370
     9
390
F
347
21
  0
ENDTAB
  0
TABLE
  2
STYLE
  5
3
330
0
100
AcDbSymbolTable
 70
    11
  0
STYLE
  5
55
330
3
100
AcDbSymbolTableRecord
100
AcDbTextStyleTableRecord
  2
Standard
 70
     0
 40
0.0
 41
1.0
 50
0.0
 71
     0
 42
0.2
  3
txt
  4

  0
STYLE
  5
5A
330
3
100
AcDbSymbolTableRecord
100
AcDbTextStyleTableRecord
  2
Annotative
 70
     0
 40
0.0
 41
1.0
 50
0.0
 71
     0
 42
0.2
  3
txt
  4

1001
AcadAnnotative
1000
AnnotativeData
1002
{
1070
     1
1070
     1
1002
}
  0
STYLE
  5
1A8
330
3
100
AcDbSymbolTableRecord
100
AcDbTextStyleTableRecord
  2
Swis721 Lt BT
 70
     0
 40
4.0
 41
1.0
 50
0.0
 71
     0
 42
0.2
  3
swissl.ttf
  4

1001
ACAD
1000
Swis721 Lt BT
1071
       34
  0
STYLE
  5
241
330
3
100
AcDbSymbolTableRecord
100
AcDbTextStyleTableRecord
  2
Swis721 Lt BT_1
 70
     0
 40
1.5
 41
0.9
 50
0.0
 71
     0
 42
0.2
  3
swissl.ttf
  4

1001
ACAD
1000
Swis721 Lt BT
1071
       34
  0
STYLE
  5
245
330
3
100
AcDbSymbolTableRecord
100
AcDbTextStyleTableRecord
  2
Swis721 Lt BT_2
 70
     0
 40
2.1
 41
0.9
 50
0.0
 71
     0
 42
0.2
  3
swissl.ttf
  4

1001
ACAD
1000
Swis721 Lt BT
1071
       34
  0
STYLE
  5
248
330
3
100
AcDbSymbolTableRecord
100
AcDbTextStyleTableRecord
  2
Swis721 Lt BT_B
 70
     0
 40
0.7000000000000001
 41
0.9
 50
0.0
 71
     0
 42
0.2
  3

  4

1001
ACAD
1000
Swis721 Lt BT
1071
 33554466
  0
STYLE
  5
24A
330
3
100
AcDbSymbolTableRecord
100
AcDbTextStyleTableRecord
  2
Swis721 Lt BT_3
 70
     0
 40
0.7000000000000001
 41
0.9
 50
0.0
 71
     0
 42
0.2
  3
swissl.ttf
  4

1001
ACAD
1000
Swis721 Lt BT
1071
       34
  0
STYLE
  5
259
330
3
100
AcDbSymbolTableRecord
100
AcDbTextStyleTableRecord
  2
Swis721 Lt BT_4
 70
     0
 40
2.0
 41
1.0
 50
0.0
 71
     0
 42
0.2
  3
swissl.ttf
  4

1001
ACAD
1000
Swis721 Lt BT
1071
       34
  0
STYLE
  5
25B
330
3
100
AcDbSymbolTableRecord
100
AcDbTextStyleTableRecord
  2
Arial Black_B
 70
     0
 40
5.0
 41
0.9
 50
0.0
 71
     0
 42
0.2
  3
ariblk.ttf
  4

1001
ACAD
1000
Arial Black
1071
 33554466
  0
STYLE
  5
25D
330
3
100
AcDbSymbolTableRecord
100
AcDbTextStyleTableRecord
  2
Swis721 Lt BT_5
 70
     0
 40
3.0
 41
1.0
 50
0.0
 71
     0
 42
0.2
  3
swissl.ttf
  4

1001
ACAD
1000
Swis721 Lt BT
1071
       34
  0
STYLE
  5
25F
330
3
100
AcDbSymbolTableRecord
100
AcDbTextStyleTableRecord
  2
Arial
 70
     0
 40
4.0
 41
1.0
 50
0.0
 71
     0
 42
0.2
  3
arial.ttf
  4

1001
ACAD
1000
Arial
1071
       34
  0
ENDTAB
  0
TABLE
  2
VIEW
  5
6
330
0
100
AcDbSymbolTable
 70
     0
  0
ENDTAB
  0
TABLE
  2
UCS
  5
7
330
0
100
AcDbSymbolTable
 70
     0
  0
ENDTAB
  0
TABLE
  2
APPID
  5
9
330
0
100
AcDbSymbolTable
 70
     4
  0
APPID
  5
56
330
9
100
AcDbSymbolTableRecord
100
AcDbRegAppTableRecord
  2
ACAD
 70
     0
  0
APPID
  5
5E
330
9
100
AcDbSymbolTableRecord
100
AcDbRegAppTableRecord
  2
AcadAnnotative
 70
     0
  0
APPID
  5
78
330
9
100
AcDbSymbolTableRecord
100
AcDbRegAppTableRecord
  2
REVIT
 70
     0
  0
APPID
  5
2A1
330
9
100
AcDbSymbolTableRecord
100
AcDbRegAppTableRecord
  2
ACAD_MLEADERVER
 70
     0
  0
ENDTAB
  0
TABLE
  2
DIMSTYLE
  5
A
330
0
100
AcDbSymbolTable
 70
     2
100
AcDbDimStyleTable
 71
     0
  0
DIMSTYLE
105
58
330
A
100
AcDbSymbolTableRecord
100
AcDbDimStyleTableRecord
  2
Standard
 70
     0
340
55
  0
DIMSTYLE
105
59
330
A
100
AcDbSymbolTableRecord
100
AcDbDimStyleTableRecord
  2
Annotative
 70
     0
340
55
1001
AcadAnnotative
1000
AnnotativeData
1002
{
1070
     1
1070
     1
1002
}
  0
ENDTAB
  0
TABLE
  2
BLOCK_RECORD
  5
1
330
0
100
AcDbSymbolTable
 70
    21
  0
BLOCK_RECORD
  5
70
102
{ACAD_XDICTIONARY
360
267
102
}
330
1
100
AcDbSymbolTableRecord
100
AcDbBlockTableRecord
  2
*Model_Space
340
73
 70
     0
280
     1
281
     0
  0
BLOCK_RECORD
  5
6C
330
1
100
AcDbSymbolTableRecord
100
AcDbBlockTableRecord
  2
*Paper_Space
340
6F
 70
     0
280
     1
281
     0
  0
BLOCK_RECORD
  5
74
330
1
100
AcDbSymbolTableRecord
100
AcDbBlockTableRecord
  2
*Paper_Space0
340
77
 70
     0
280
     1
281
     0
  0
BLOCK_RECORD
  5
C2
330
1
100
AcDbSymbolTableRecord
100
AcDbBlockTableRecord
  2
_ARDEX_ Lines - Barrier-604404-AB-19 PLANT EQUIPMENT SUPPORTS
340
0
102
{BLKREFS
331
C7
102
}
 70
     0
280
     1
281
     0
  0
BLOCK_RECORD
  5
C8
330
1
100
AcDbSymbolTableRecord
100
AcDbBlockTableRecord
  2
_ARDEX_ Framing - Framing-540347-AB-19 PLANT EQUIPMENT SUPPORTS
340
0
102
{BLKREFS
331
D0
331
D1
102
}
 70
     0
280
     1
281
     0
  0
BLOCK_RECORD
  5
D2
330
1
100
AcDbSymbolTableRecord
100
AcDbBlockTableRecord
  2
_ARDEX_ Lining - Various - Plinth-541498-AB-19 PLANT EQUIPMENT SUPPORTS
340
0
102
{BLKREFS
331
D9
102
}
 70
     0
280
     1
281
     0
  0
BLOCK_RECORD
  5
DA
330
1
100
AcDbSymbolTableRecord
100
AcDbBlockTableRecord
  2
_ARDEX_ Lines - Membrane-595221-AB-19 PLANT EQUIPMENT SUPPORTS
340
0
102
{BLKREFS
331
DE
102
}
 70
     0
280
     1
281
     0
  0
BLOCK_RECORD
  5
DF
330
1
100
AcDbSymbolTableRecord
100
AcDbBlockTableRecord
  2
_ARDEX_ Lining - Various - Polyiso Board 35MM-594682-AB-19 PLANT EQUIPMENT SUPPORTS
340
0
102
{BLKREFS
331
EF
102
}
 70
     0
280
     1
281
     0
  0
BLOCK_RECORD
  5
F0
330
1
100
AcDbSymbolTableRecord
100
AcDbBlockTableRecord
  2
_ARDEX_ Lining - Various - Substrate-594895-AB-19 PLANT EQUIPMENT SUPPORTS
340
0
102
{BLKREFS
331
F6
102
}
 70
     0
280
     1
281
     0
  0
BLOCK_RECORD
  5
F7
330
1
100
AcDbSymbolTableRecord
100
AcDbBlockTableRecord
  2
_ARDEX_ Lining - Various - Polyiso Board 35MM-594999-AB-19 PLANT EQUIPMENT SUPPORTS
340
0
102
{BLKREFS
331
107
102
}
 70
     0
280
     1
281
     0
  0
BLOCK_RECORD
  5
108
330
1
100
AcDbSymbolTableRecord
100
AcDbBlockTableRecord
  2
_ARDEX_ Framing - Framing-595214-AB-19 PLANT EQUIPMENT SUPPORTS
340
0
102
{BLKREFS
331
113
102
}
 70
     0
280
     1
281
     0
  0
BLOCK_RECORD
  5
115
330
1
100
AcDbSymbolTableRecord
100
AcDbBlockTableRecord
  2
_ARDEX_ Lines - Membrane-604723-AB-19 PLANT EQUIPMENT SUPPORTS
340
0
102
{BLKREFS
331
119
102
}
 70
     0
280
     1
281
     0
  0
BLOCK_RECORD
  5
11A
330
1
100
AcDbSymbolTableRecord
100
AcDbBlockTableRecord
  2
_ARDEX_ Lines - Membrane-604724-AB-19 PLANT EQUIPMENT SUPPORTS
340
0
102
{BLKREFS
331
11E
102
}
 70
     0
280
     1
281
     0
  0
BLOCK_RECORD
  5
11F
330
1
100
AcDbSymbolTableRecord
100
AcDbBlockTableRecord
  2
_ARDEX_ Fixing 2 - _ARDEX_ Fixing 2-604725-AB-19 PLANT EQUIPMENT SUPPORTS
340
0
102
{BLKREFS
331
149
102
}
 70
     0
280
     1
281
     0
  0
BLOCK_RECORD
  5
14A
330
1
100
AcDbSymbolTableRecord
100
AcDbBlockTableRecord
  2
_ARDEX_ Fixing 2 - _ARDEX_ Fixing 2-604492-AB-19 PLANT EQUIPMENT SUPPORTS
340
0
102
{BLKREFS
331
174
102
}
 70
     0
280
     1
281
     0
  0
BLOCK_RECORD
  5
175
330
1
100
AcDbSymbolTableRecord
100
AcDbBlockTableRecord
  2
_ARDEX_ Lines - Barrier-604440-AB-19 PLANT EQUIPMENT SUPPORTS
340
0
102
{BLKREFS
331
179
102
}
 70
     0
280
     1
281
     0
  0
BLOCK_RECORD
  5
17A
330
1
100
AcDbSymbolTableRecord
100
AcDbBlockTableRecord
  2
_ARDEX_ Lines - Barrier-604392-AB-19 PLANT EQUIPMENT SUPPORTS
340
0
102
{BLKREFS
331
17E
102
}
 70
     0
280
     1
281
     0
  0
BLOCK_RECORD
  5
17F
330
1
100
AcDbSymbolTableRecord
100
AcDbBlockTableRecord
  2
_ARDEX_ Lines - Barrier-604441-AB-19 PLANT EQUIPMENT SUPPORTS
340
0
102
{BLKREFS
331
183
102
}
 70
     0
280
     1
281
     0
  0
BLOCK_RECORD
  5
184
330
1
100
AcDbSymbolTableRecord
100
AcDbBlockTableRecord
  2
_ARDEX_ Lines - Barrier-604403-AB-19 PLANT EQUIPMENT SUPPORTS
340
0
102
{BLKREFS
331
188
102
}
 70
     0
280
     1
281
     0
  0
BLOCK_RECORD
  5
189
330
1
100
AcDbSymbolTableRecord
100
AcDbBlockTableRecord
  2
_ARDEX_ Lines - Membrane-595332-AB-19 PLANT EQUIPMENT SUPPORTS
340
0
102
{BLKREFS
331
18D
331
18E
102
}
 70
     0
280
     1
281
     0
  0
BLOCK_RECORD
  5
195
330
1
100
AcDbSymbolTableRecord
100
AcDbBlockTableRecord
  2
Fix - Nail - Nail-611824-AB-19 PLANT EQUIPMENT SUPPORTS
340
0
102
{BLKREFS
331
1A2
331
1A3
102
}
 70
     0
280
     1
281
     0
  0
BLOCK_RECORD
  5
1CA
330
1
100
AcDbSymbolTableRecord
100
AcDbBlockTableRecord
  2
_ARDEX_ Landscape Title block - ARDEX Logo_dwg-603482-PLANT EQUIPMENT SUPPORTS
340
0
102
{BLKREFS
331
255
102
}
 70
     0
280
     1
281
     0
  0
BLOCK_RECORD
  5
22D
330
1
100
AcDbSymbolTableRecord
100
AcDbBlockTableRecord
  2
_ARDEX_ Landscape Title block - _ARDEX_ Landscape Title block-333213-PLANT EQUIPMENT SUPPORTS
340
0
102
{BLKREFS
331
258
102
}
 70
     0
280
     1
281
     0
  0
ENDTAB
  0
ENDSEC
  0
SECTION
  2
BLOCKS
  0
BLOCK
  5
71
330
70
100
AcDbEntity
  8
0
100
AcDbBlockBegin
  2
*Model_Space
 70
     0
 10
0.0
 20
0.0
 30
0.0
  3
*Model_Space
  1

  0
ENDBLK
  5
72
330
70
100
AcDbEntity
  8
0
100
AcDbBlockEnd
  0
BLOCK
  5
6D
330
6C
100
AcDbEntity
 67
     1
  8
0
100
AcDbBlockBegin
  2
*Paper_Space
 70
     0
 10
0.0
 20
0.0
 30
0.0
  3
*Paper_Space
  1

  0
ENDBLK
  5
6E
330
6C
100
AcDbEntity
 67
     1
  8
0
100
AcDbBlockEnd
  0
BLOCK
  5
75
330
74
100
AcDbEntity
 67
     1
  8
0
100
AcDbBlockBegin
  2
*Paper_Space0
 70
     0
 10
0.0
 20
0.0
 30
0.0
  3
*Paper_Space0
  1

  0
ENDBLK
  5
76
330
74
100
AcDbEntity
 67
     1
  8
0
100
AcDbBlockEnd
  0
BLOCK
  5
C5
330
C2
100
AcDbEntity
  8
0
100
AcDbBlockBegin
  2
_ARDEX_ Lines - Barrier-604404-AB-19 PLANT EQUIPMENT SUPPORTS
 70
     0
 10
0.0
 20
0.0
 30
0.0
  3
_ARDEX_ Lines - Barrier-604404-AB-19 PLANT EQUIPMENT SUPPORTS
  1

  0
LINE
  5
C4
330
C2
100
AcDbEntity
  8
_ARDEX - BUTYNOL_
  6
Dash
 62
     7
370
    50
100
AcDbLine
 10
120.5839825770724
 20
0.0
 30
0.0
 11
-0.0000000000024365
 21
0.0
 31
0.0
1001
REVIT
1002
{
1070
     1
1000
519623
1002
}
1002
{
1070
     5
1000
569184
1002
}
1002
{
1070
     3
1000
342012
1002
}
  0
ENDBLK
  5
C6
330
C2
100
AcDbEntity
  8
0
100
AcDbBlockEnd
  0
BLOCK
  5
CE
330
C8
100
AcDbEntity
  8
0
100
AcDbBlockBegin
  2
_ARDEX_ Framing - Framing-540347-AB-19 PLANT EQUIPMENT SUPPORTS
 70
     0
 10
0.0
 20
0.0
 30
0.0
  3
_ARDEX_ Framing - Framing-540347-AB-19 PLANT EQUIPMENT SUPPORTS
  1

  0
LINE
  5
C9
330
C8
100
AcDbEntity
  8
_ARDEX - BUTYNOL_
 62
     7
370
    50
100
AcDbLine
 10
120.571433366582
 20
-109.0
 30
0.0
 11
120.571433366582
 21
-13.99999999999945
 31
0.0
1001
REVIT
1002
{
1070
     1
1000
519618
1002
}
1002
{
1070
     5
1000
489751
1002
}
1002
{
1070
     3
1000
488774
1002
}
  0
LINE
  5
CA
330
C8
100
AcDbEntity
  8
_ARDEX - BUTYNOL_
 62
     7
370
    50
100
AcDbLine
 10
75.57143336628072
 20
-13.9999999999993
 30
0.0
 11
75.57143336628072
 21
-109.0
 31
0.0
1001
REVIT
1002
{
1070
     1
1000
519618
1002
}
1002
{
1070
     5
1000
489751
1002
}
1002
{
1070
     3
1000
488774
1002
}
  0
LINE
  5
CB
330
C8
100
AcDbEntity
  8
_ARDEX - BUTYNOL_
 62
     7
370
    50
100
AcDbLine
 10
75.57143336628072
 20
-109.0
 30
0.0
 11
120.571433366582
 21
-109.0
 31
0.0
1001
REVIT
1002
{
1070
     1
1000
519618
1002
}
1002
{
1070
     5
1000
489751
1002
}
1002
{
1070
     3
1000
488774
1002
}
  0
LINE
  5
CC
330
C8
100
AcDbEntity
  8
_ARDEX - BUTYNOL_
 62
   156
420
    16512
100
AcDbLine
 10
75.57143336628072
 20
-13.99999999999929
 30
0.0
 11
120.5143538379618
 21
-109.0
 31
0.0
1001
REVIT
1002
{
1070
     1
1000
519618
1002
}
1002
{
1070
     5
1000
489751
1002
}
1002
{
1070
     3
1000
488778
1002
}
  0
LINE
  5
CD
330
C8
100
AcDbEntity
  8
_ARDEX - BUTYNOL_
 62
   156
420
    16512
100
AcDbLine
 10
75.57143336628072
 20
-109.0
 30
0.0
 11
120.5714333665819
 21
-13.99999999999947
 31
0.0
1001
REVIT
1002
{
1070
     1
1000
519618
1002
}
1002
{
1070
     5
1000
489751
1002
}
1002
{
1070
     3
1000
488778
1002
}
  0
ENDBLK
  5
CF
330
C8
100
AcDbEntity
  8
0
100
AcDbBlockEnd
  0
BLOCK
  5
D7
330
D2
100
AcDbEntity
  8
0
100
AcDbBlockBegin
  2
_ARDEX_ Lining - Various - Plinth-541498-AB-19 PLANT EQUIPMENT SUPPORTS
 70
     0
 10
0.0
 20
0.0
 30
0.0
  3
_ARDEX_ Lining - Various - Plinth-541498-AB-19 PLANT EQUIPMENT SUPPORTS
  1

  0
LINE
  5
D3
330
D2
100
AcDbEntity
  8
_ARDEX - BUTYNOL_
 62
     7
370
    25
100
AcDbLine
 10
117.0285397652121
 20
0.0
 30
0.0
 11
117.0285397652121
 21
40.0
 31
0.0
1001
REVIT
1002
{
1070
     1
1000
519718
1002
}
1002
{
1070
     5
1000
514056
1002
}
1002
{
1070
     3
1000
335610
1002
}
  0
LINE
  5
D4
330
D2
100
AcDbEntity
  8
_ARDEX - BUTYNOL_
 62
     7
370
    25
100
AcDbLine
 10
0.0
 20
40.0
 30
0.0
 11
0.0
 21
0.0
 31
0.0
1001
REVIT
1002
{
1070
     1
1000
519718
1002
}
1002
{
1070
     5
1000
514056
1002
}
1002
{
1070
     3
1000
335610
1002
}
  0
LINE
  5
D5
330
D2
100
AcDbEntity
  8
_ARDEX - BUTYNOL_
 62
     7
370
    25
100
AcDbLine
 10
0.0
 20
40.0
 30
0.0
 11
117.0285397652121
 21
40.0
 31
0.0
1001
REVIT
1002
{
1070
     1
1000
519718
1002
}
1002
{
1070
     5
1000
514056
1002
}
1002
{
1070
     3
1000
335610
1002
}
  0
LINE
  5
D6
330
D2
100
AcDbEntity
  8
_ARDEX - BUTYNOL_
 62
     7
370
    25
100
AcDbLine
 10
0.0
 20
0.0
 30
0.0
 11
117.0285397652121
 21
0.0
 31
0.0
1001
REVIT
1002
{
1070
     1
1000
519718
1002
}
1002
{
1070
     5
1000
514056
1002
}
1002
{
1070
     3
1000
335610
1002
}
  0
ENDBLK
  5
D8
330
D2
100
AcDbEntity
  8
0
100
AcDbBlockEnd
  0
BLOCK
  5
DC
330
DA
100
AcDbEntity
  8
0
100
AcDbBlockBegin
  2
_ARDEX_ Lines - Membrane-595221-AB-19 PLANT EQUIPMENT SUPPORTS
 70
     0
 10
0.0
 20
0.0
 30
0.0
  3
_ARDEX_ Lines - Membrane-595221-AB-19 PLANT EQUIPMENT SUPPORTS
  1

  0
LINE
  5
DB
330
DA
100
AcDbEntity
  8
_ARDEX - BUTYNOL_
  6
Dash
 62
     7
370
   100
100
AcDbLine
 10
122.0285397652093
 20
0.0
 30
0.0
 11
-0.0000000000027072
 21
0.0
 31
0.0
1001
REVIT
1002
{
1070
     1
1000
519929
1002
}
1002
{
1070
     5
1000
569180
1002
}
1002
{
1070
     3
1000
352413
1002
}
  0
ENDBLK
  5
DD
330
DA
100
AcDbEntity
  8
0
100
AcDbBlockEnd
  0
BLOCK
  5
ED
330
DF
100
AcDbEntity
  8
0
100
AcDbBlockBegin
  2
_ARDEX_ Lining - Various - Polyiso Board 35MM-594682-AB-19 PLANT EQUIPMENT SUPPORTS
 70
     0
 10
0.0
 20
0.0
 30
0.0
  3
_ARDEX_ Lining - Various - Polyiso Board 35MM-594682-AB-19 PLANT EQUIPMENT SUPPORTS
  1

  0
HATCH
  5
E4
330
DF
100
AcDbEntity
  8
_ARDEX - WELDTEC_
 62
   254
420
 14737632
100
AcDbHatch
 10
0.0
 20
0.0
 30
0.0
210
0.0
220
0.0
230
1.0
  2
SOLID
 70
     1
 71
     0
 91
        1
 92
        1
 93
        4
 72
     1
 10
144.9999999999987
 20
0.0000000000012859
 11
-0.0000000000025011
 21
0.0000000000012859
 72
     1
 10
-0.0000000000025041
 20
0.0000000000012859
 11
-0.0000000000025041
 21
-32.00000000000152
 72
     1
 10
-0.0000000000025041
 20
-32.00000000000152
 11
144.9999999999987
 21
-32.00000000000152
 72
     1
 10
144.9999999999987
 20
-32.00000000000152
 11
144.9999999999987
 21
0.0000000000012861
 97
        0
 75
     0
 76
     1
 98
        1
 10
0.0
 20
0.0
450
        0
451
        0
460
0.0
461
0.0
452
        0
462
0.0
453
        0
470

1001
REVIT
1002
{
1070
     1
1000
594331
1002
}
1002
{
1070
     5
1000
569182
1002
}
  0
HATCH
  5
E9
330
DF
100
AcDbEntity
  8
_ARDEX - WELDTEC_
 62
     8
420
  8421504
100
AcDbHatch
 10
0.0
 20
0.0
 30
0.0
210
0.0
220
0.0
230
1.0
  2
FP_1
 70
     0
 71
     0
 91
        1
 92
        1
 93
        4
 72
     1
 10
144.9999999999987
 20
0.0000000000012859
 11
-0.0000000000025011
 21
0.0000000000012859
 72
     1
 10
-0.0000000000025041
 20
0.0000000000012859
 11
-0.0000000000025041
 21
-32.00000000000152
 72
     1
 10
-0.0000000000025041
 20
-32.00000000000152
 11
144.9999999999987
 21
-32.00000000000152
 72
     1
 10
144.9999999999987
 20
-32.00000000000152
 11
144.9999999999987
 21
0.0000000000012861
 97
        0
 75
     0
 76
     2
 52
0.0
 41
1.0
 77
     0
 78
     1
 53
315.0
 43
3590.334000000001
 44
2447.762
 45
2.82842712474619
 46
2.82842712474619
 79
     0
 98
        1
 10
0.0
 20
0.0
1001
REVIT
1002
{
1070
     1
1000
594331
1002
}
1002
{
1070
     5
1000
569182
1002
}
  0
LINE
  5
EA
330
DF
100
AcDbEntity
  8
_ARDEX - BUTYNOL_
 62
     7
370
    25
100
AcDbLine
 10
0.0
 20
-32.0
 30
0.0
 11
0.0
 21
0.0
 31
0.0
1001
REVIT
1002
{
1070
     1
1000
594331
1002
}
1002
{
1070
     5
1000
569182
1002
}
1002
{
1070
     3
1000
335610
1002
}
  0
LINE
  5
EB
330
DF
100
AcDbEntity
  8
_ARDEX - BUTYNOL_
 62
     7
370
    25
100
AcDbLine
 10
0.0
 20
-32.0
 30
0.0
 11
145.0000000000011
 21
-32.0
 31
0.0
1001
REVIT
1002
{
1070
     1
1000
594331
1002
}
1002
{
1070
     5
1000
569182
1002
}
1002
{
1070
     3
1000
335610
1002
}
  0
LINE
  5
EC
330
DF
100
AcDbEntity
  8
_ARDEX - BUTYNOL_
 62
     7
370
    25
100
AcDbLine
 10
0.0
 20
0.0
 30
0.0
 11
145.0000000000011
 21
0.0
 31
0.0
1001
REVIT
1002
{
1070
     1
1000
594331
1002
}
1002
{
1070
     5
1000
569182
1002
}
1002
{
1070
     3
1000
335610
1002
}
  0
ENDBLK
  5
EE
330
DF
100
AcDbEntity
  8
0
100
AcDbBlockEnd
  0
BLOCK
  5
F4
330
F0
100
AcDbEntity
  8
0
100
AcDbBlockBegin
  2
_ARDEX_ Lining - Various - Substrate-594895-AB-19 PLANT EQUIPMENT SUPPORTS
 70
     0
 10
0.0
 20
0.0
 30
0.0
  3
_ARDEX_ Lining - Various - Substrate-594895-AB-19 PLANT EQUIPMENT SUPPORTS
  1

  0
LINE
  5
F1
330
F0
100
AcDbEntity
  8
_ARDEX - BUTYNOL_
 62
     7
100
AcDbLine
 10
0.0
 20
-18.0
 30
0.0
 11
148.535533905936
 21
-18.0
 31
0.0
1001
REVIT
1002
{
1070
     1
1000
594838
1002
}
1002
{
1070
     5
1000
569186
1002
}
1002
{
1070
     3
1000
335606
1002
}
  0
LINE
  5
F2
330
F0
100
AcDbEntity
  8
_ARDEX - BUTYNOL_
 62
     7
100
AcDbLine
 10
265.564073671149
 20
-18.0
 30
0.0
 11
414.0996075770836
 21
-18.0
 31
0.0
1001
REVIT
1002
{
1070
     1
1000
594838
1002
}
1002
{
1070
     5
1000
569186
1002
}
1002
{
1070
     3
1000
335606
1002
}
  0
LINE
  5
F3
330
F0
100
AcDbEntity
  8
_ARDEX - BUTYNOL_
 62
     7
100
AcDbLine
 10
0.0
 20
0.0
 30
0.0
 11
414.0996075770836
 21
0.0
 31
0.0
1001
REVIT
1002
{
1070
     1
1000
594838
1002
}
1002
{
1070
     5
1000
569186
1002
}
1002
{
1070
     3
1000
335606
1002
}
  0
ENDBLK
  5
F5
330
F0
100
AcDbEntity
  8
0
100
AcDbBlockEnd
  0
BLOCK
  5
105
330
F7
100
AcDbEntity
  8
0
100
AcDbBlockBegin
  2
_ARDEX_ Lining - Various - Polyiso Board 35MM-594999-AB-19 PLANT EQUIPMENT SUPPORTS
 70
     0
 10
0.0
 20
0.0
 30
0.0
  3
_ARDEX_ Lining - Various - Polyiso Board 35MM-594999-AB-19 PLANT EQUIPMENT SUPPORTS
  1

  0
HATCH
  5
FC
330
F7
100
AcDbEntity
  8
_ARDEX - WELDTEC_
 62
   254
420
 14737632
100
AcDbHatch
 10
0.0
 20
0.0
 30
0.0
210
0.0
220
0.0
230
1.0
  2
SOLID
 70
     1
 71
     0
 91
        1
 92
        1
 93
        4
 72
     1
 10
145.0000000000044
 20
-0.0000000000010829
 11
145.0000000000044
 21
32.00000000000173
 72
     1
 10
145.0000000000044
 20
32.00000000000173
 11
0.0000000000031832
 21
32.00000000000173
 72
     1
 10
0.0000000000031809
 20
32.00000000000173
 11
0.0000000000031809
 21
-0.00000000000108
 72
     1
 10
0.0000000000031809
 20
-0.0000000000010829
 11
145.0000000000044
 21
-0.0000000000010829
 97
        0
 75
     0
 76
     1
 98
        1
 10
0.0
 20
0.0
450
        0
451
        0
460
0.0
461
0.0
452
        0
462
0.0
453
        0
470

1001
REVIT
1002
{
1070
     1
1000
594996
1002
}
1002
{
1070
     5
1000
569182
1002
}
  0
HATCH
  5
101
330
F7
100
AcDbEntity
  8
_ARDEX - WELDTEC_
 62
     8
420
  8421504
100
AcDbHatch
 10
0.0
 20
0.0
 30
0.0
210
0.0
220
0.0
230
1.0
  2
FP_2
 70
     0
 71
     0
 91
        1
 92
        1
 93
        4
 72
     1
 10
145.0000000000044
 20
-0.0000000000010829
 11
145.0000000000044
 21
32.00000000000173
 72
     1
 10
145.0000000000044
 20
32.00000000000173
 11
0.0000000000031832
 21
32.00000000000173
 72
     1
 10
0.0000000000031809
 20
32.00000000000173
 11
0.0000000000031809
 21
-0.00000000000108
 72
     1
 10
0.0000000000031809
 20
-0.0000000000010829
 11
145.0000000000044
 21
-0.0000000000010829
 97
        0
 75
     0
 76
     2
 52
0.0
 41
1.0
 77
     0
 78
     1
 53
135.0
 43
-3714.434
 44
-2447.762
 45
-2.82842712474619
 46
-2.828427124746189
 79
     0
 98
        1
 10
0.0
 20
0.0
1001
REVIT
1002
{
1070
     1
1000
594996
1002
}
1002
{
1070
     5
1000
569182
1002
}
  0
LINE
  5
102
330
F7
100
AcDbEntity
  8
_ARDEX - BUTYNOL_
 62
     7
370
    25
100
AcDbLine
 10
0.0
 20
32.0
 30
0.0
 11
0.0
 21
0.0
 31
0.0
1001
REVIT
1002
{
1070
     1
1000
594996
1002
}
1002
{
1070
     5
1000
569182
1002
}
1002
{
1070
     3
1000
335610
1002
}
  0
LINE
  5
103
330
F7
100
AcDbEntity
  8
_ARDEX - BUTYNOL_
 62
     7
370
    25
100
AcDbLine
 10
0.0
 20
32.0
 30
0.0
 11
145.0000000000011
 21
32.0
 31
0.0
1001
REVIT
1002
{
1070
     1
1000
594996
1002
}
1002
{
1070
     5
1000
569182
1002
}
1002
{
1070
     3
1000
335610
1002
}
  0
LINE
  5
104
330
F7
100
AcDbEntity
  8
_ARDEX - BUTYNOL_
 62
     7
370
    25
100
AcDbLine
 10
0.0
 20
0.0
 30
0.0
 11
145.0000000000011
 21
0.0
 31
0.0
1001
REVIT
1002
{
1070
     1
1000
594996
1002
}
1002
{
1070
     5
1000
569182
1002
}
1002
{
1070
     3
1000
335610
1002
}
  0
ENDBLK
  5
106
330
F7
100
AcDbEntity
  8
0
100
AcDbBlockEnd
  0
BLOCK
  5
111
330
108
100
AcDbEntity
  8
0
100
AcDbBlockBegin
  2
_ARDEX_ Framing - Framing-595214-AB-19 PLANT EQUIPMENT SUPPORTS
 70
     0
 10
0.0
 20
0.0
 30
0.0
  3
_ARDEX_ Framing - Framing-595214-AB-19 PLANT EQUIPMENT SUPPORTS
  1

  0
LINE
  5
109
330
108
100
AcDbEntity
  8
_ARDEX - BUTYNOL_
 62
     7
370
    50
100
AcDbLine
 10
112.4826729640189
 20
-109.0
 30
0.0
 11
112.4826729640189
 21
-88.7143927609169
 31
0.0
1001
REVIT
1002
{
1070
     1
1000
595039
1002
}
1002
{
1070
     5
1000
489751
1002
}
1002
{
1070
     3
1000
488774
1002
}
  0
LINE
  5
10A
330
108
100
AcDbEntity
  8
_ARDEX - BUTYNOL_
 62
     7
370
    50
100
AcDbLine
 10
112.4826729640189
 20
-82.71439276091689
 30
0.0
 11
112.4826729640189
 21
-19.50706747387169
 31
0.0
1001
REVIT
1002
{
1070
     1
1000
595039
1002
}
1002
{
1070
     5
1000
489751
1002
}
1002
{
1070
     3
1000
488774
1002
}
  0
LINE
  5
10B
330
108
100
AcDbEntity
  8
_ARDEX - BUTYNOL_
 62
     7
370
    50
100
AcDbLine
 10
112.4826729640189
 20
-13.50706747387168
 30
0.0
 11
112.4826729640189
 21
8.028539765212793
 31
0.0
1001
REVIT
1002
{
1070
     1
1000
595039
1002
}
1002
{
1070
     5
1000
489751
1002
}
1002
{
1070
     3
1000
488774
1002
}
  0
LINE
  5
10C
330
108
100
AcDbEntity
  8
_ARDEX - BUTYNOL_
 62
     7
370
    50
100
AcDbLine
 10
112.4826729640189
 20
8.028539765212793
 30
0.0
 11
75.57143336628072
 21
8.028539765212912
 31
0.0
1001
REVIT
1002
{
1070
     1
1000
595039
1002
}
1002
{
1070
     5
1000
489751
1002
}
1002
{
1070
     3
1000
488774
1002
}
  0
LINE
  5
10D
330
108
100
AcDbEntity
  8
_ARDEX - BUTYNOL_
 62
     7
370
    50
100
AcDbLine
 10
75.57143336628072
 20
8.028539765212912
 30
0.0
 11
75.57143336628072
 21
-109.0
 31
0.0
1001
REVIT
1002
{
1070
     1
1000
595039
1002
}
1002
{
1070
     5
1000
489751
1002
}
1002
{
1070
     3
1000
488774
1002
}
  0
LINE
  5
10E
330
108
100
AcDbEntity
  8
_ARDEX - BUTYNOL_
 62
     7
370
    50
100
AcDbLine
 10
75.57143336628072
 20
-109.0
 30
0.0
 11
112.4826729640189
 21
-109.0
 31
0.0
1001
REVIT
1002
{
1070
     1
1000
595039
1002
}
1002
{
1070
     5
1000
489751
1002
}
1002
{
1070
     3
1000
488774
1002
}
  0
LINE
  5
10F
330
108
100
AcDbEntity
  8
_ARDEX - BUTYNOL_
 62
   156
420
    16512
100
AcDbLine
 10
75.57143336628072
 20
8.028539765212928
 30
0.0
 11
112.4255934353988
 21
-109.0
 31
0.0
1001
REVIT
1002
{
1070
     1
1000
595039
1002
}
1002
{
1070
     5
1000
489751
1002
}
1002
{
1070
     3
1000
488778
1002
}
  0
LINE
  5
110
330
108
100
AcDbEntity
  8
_ARDEX - BUTYNOL_
 62
   156
420
    16512
100
AcDbLine
 10
75.57143336628072
 20
-109.0
 30
0.0
 11
112.4826729640189
 21
8.028539765212793
 31
0.0
1001
REVIT
1002
{
1070
     1
1000
595039
1002
}
1002
{
1070
     5
1000
489751
1002
}
1002
{
1070
     3
1000
488778
1002
}
  0
ENDBLK
  5
112
330
108
100
AcDbEntity
  8
0
100
AcDbBlockEnd
  0
BLOCK
  5
117
330
115
100
AcDbEntity
  8
0
100
AcDbBlockBegin
  2
_ARDEX_ Lines - Membrane-604723-AB-19 PLANT EQUIPMENT SUPPORTS
 70
     0
 10
0.0
 20
0.0
 30
0.0
  3
_ARDEX_ Lines - Membrane-604723-AB-19 PLANT EQUIPMENT SUPPORTS
  1

  0
LINE
  5
116
330
115
100
AcDbEntity
  8
_ARDEX - BUTYNOL_
  6
Dash
 62
     7
370
   100
100
AcDbLine
 10
41.67893218813336
 20
0.0
 30
0.0
 11
-0.0000000000027072
 21
0.0
 31
0.0
1001
REVIT
1002
{
1070
     1
1000
519812
1002
}
1002
{
1070
     5
1000
569180
1002
}
1002
{
1070
     3
1000
352413
1002
}
  0
ENDBLK
  5
118
330
115
100
AcDbEntity
  8
0
100
AcDbBlockEnd
  0
BLOCK
  5
11C
330
11A
100
AcDbEntity
  8
0
100
AcDbBlockBegin
  2
_ARDEX_ Lines - Membrane-604724-AB-19 PLANT EQUIPMENT SUPPORTS
 70
     0
 10
0.0
 20
0.0
 30
0.0
  3
_ARDEX_ Lines - Membrane-604724-AB-19 PLANT EQUIPMENT SUPPORTS
  1

  0
LINE
  5
11B
330
11A
100
AcDbEntity
  8
_ARDEX - BUTYNOL_
  6
Dash
 62
     7
370
   100
100
AcDbLine
 10
41.67893218813269
 20
0.0
 30
0.0
 11
-0.0000000000027072
 21
0.0
 31
0.0
1001
REVIT
1002
{
1070
     1
1000
519940
1002
}
1002
{
1070
     5
1000
569180
1002
}
1002
{
1070
     3
1000
352413
1002
}
  0
ENDBLK
  5
11D
330
11A
100
AcDbEntity
  8
0
100
AcDbBlockEnd
  0
BLOCK
  5
147
330
11F
100
AcDbEntity
  8
0
100
AcDbBlockBegin
  2
_ARDEX_ Fixing 2 - _ARDEX_ Fixing 2-604725-AB-19 PLANT EQUIPMENT SUPPORTS
 70
     0
 10
0.0
 20
0.0
 30
0.0
  3
_ARDEX_ Fixing 2 - _ARDEX_ Fixing 2-604725-AB-19 PLANT EQUIPMENT SUPPORTS
  1

  0
LINE
  5
120
330
11F
100
AcDbEntity
  8
_ARDEX - BUTYNOL_
 62
     7
100
AcDbLine
 10
-3.375000000000211
 20
0.0000000000000169
 30
0.0
 11
-3.375000000000211
 21
11.65976796987211
 31
0.0
1001
REVIT
1002
{
1070
     1
1000
550659
1002
}
1002
{
1070
     5
1000
515708
1002
}
1002
{
1070
     3
1000
411603
1002
}
  0
LINE
  5
121
330
11F
100
AcDbEntity
  8
_ARDEX - BUTYNOL_
 62
     7
100
AcDbLine
 10
3.374999999999872
 20
0.0000000000000085
 30
0.0
 11
3.374999999999872
 21
11.65976796987234
 31
0.0
1001
REVIT
1002
{
1070
     1
1000
550659
1002
}
1002
{
1070
     5
1000
515708
1002
}
1002
{
1070
     3
1000
411603
1002
}
  0
LINE
  5
122
330
11F
100
AcDbEntity
  8
_ARDEX - WELDTEC_
100
AcDbLine
 10
4.871304994127068
 20
-4.872589663414244
 30
0.0
 11
-4.940198141383466
 21
-4.872589663414244
 31
0.0
1001
REVIT
1002
{
1070
     1
1000
550659
1002
}
1002
{
1070
     5
1000
515708
1002
}
  0
LINE
  5
123
330
11F
100
AcDbEntity
  8
_ARDEX - WELDTEC_
100
AcDbLine
 10
-6.781758637354211
 20
0.0000000000000508
 30
0.0
 11
-6.781758637354211
 21
-3.975378733337736
 31
0.0
1001
REVIT
1002
{
1070
     1
1000
550659
1002
}
1002
{
1070
     5
1000
515708
1002
}
  0
LINE
  5
124
330
11F
100
AcDbEntity
  8
_ARDEX - WELDTEC_
100
AcDbLine
 10
6.781758637341484
 20
0.0000000000000085
 30
0.0
 11
6.781758637341484
 21
-3.975378733320385
 31
0.0
1001
REVIT
1002
{
1070
     1
1000
550659
1002
}
1002
{
1070
     5
1000
515708
1002
}
  0
LINE
  5
125
330
11F
100
AcDbEntity
  8
_ARDEX - WELDTEC_
100
AcDbLine
 10
-3.375000000000211
 20
0.0000000000000169
 30
0.0
 11
-3.375000000000211
 21
-3.975378733338294
 31
0.0
1001
REVIT
1002
{
1070
     1
1000
550659
1002
}
1002
{
1070
     5
1000
515708
1002
}
  0
LINE
  5
126
330
11F
100
AcDbEntity
  8
_ARDEX - WELDTEC_
100
AcDbLine
 10
3.374999999999915
 20
0.0000000000000085
 30
0.0
 11
3.374999999999915
 21
-3.975378733338438
 31
0.0
1001
REVIT
1002
{
1070
     1
1000
550659
1002
}
1002
{
1070
     5
1000
515708
1002
}
  0
ARC
  5
127
330
11F
100
AcDbEntity
  8
_ARDEX - WELDTEC_
100
AcDbCircle
 10
-5.078379318677021
 20
-2.817669022694195
 30
0.0
 40
2.059561331282282
100
AcDbArc
 50
214.2021702231818
 51
325.7978297767987
1001
REVIT
1002
{
1070
     1
1000
550659
1002
}
1002
{
1070
     5
1000
515708
1002
}
  0
ARC
  5
128
330
11F
100
AcDbEntity
  8
_ARDEX - WELDTEC_
100
AcDbCircle
 10
0.0000000000000181
 20
1.923812411084265
 30
0.0
 40
6.796402074473588
100
AcDbArc
 50
240.2255942951216
 51
299.7744057048752
1001
REVIT
1002
{
1070
     1
1000
550659
1002
}
1002
{
1070
     5
1000
515708
1002
}
  0
ARC
  5
129
330
11F
100
AcDbEntity
  8
_ARDEX - WELDTEC_
100
AcDbCircle
 10
5.078379318664634
 20
-2.830924399645125
 30
0.0
 40
2.052139572520297
100
AcDbArc
 50
213.8960820665054
 51
326.1039179341012
1001
REVIT
1002
{
1070
     1
1000
550659
1002
}
1002
{
1070
     5
1000
515708
1002
}
  0
ARC
  5
12A
330
11F
100
AcDbEntity
  8
_ARDEX - BUTYNOL_
 62
     7
100
AcDbCircle
 10
-6.459434595124356
 20
53.60414531292455
 30
0.0
 40
9.508461640761447
100
AcDbArc
 50
15.57218460270135
 51
46.73011014928838
1001
REVIT
1002
{
1070
     1
1000
550659
1002
}
1002
{
1070
     5
1000
515708
1002
}
1002
{
1070
     3
1000
411603
1002
}
  0
ARC
  5
12B
330
11F
100
AcDbEntity
  8
_ARDEX - BUTYNOL_
 62
     7
100
AcDbCircle
 10
6.535010021884008
 20
53.56630254748311
 30
0.0
 40
9.508461640761458
100
AcDbArc
 50
132.9361742238962
 51
166.2257139973264
1001
REVIT
1002
{
1070
     1
1000
550659
1002
}
1002
{
1070
     5
1000
515708
1002
}
1002
{
1070
     3
1000
411603
1002
}
  0
LINE
  5
12C
330
11F
100
AcDbEntity
  8
_ARDEX - BUTYNOL_
 62
     7
100
AcDbLine
 10
2.699999999999898
 20
13.52002383104799
 30
0.0
 11
2.699999999999898
 21
56.15671277951046
 31
0.0
1001
REVIT
1002
{
1070
     1
1000
550659
1002
}
1002
{
1070
     5
1000
515708
1002
}
1002
{
1070
     3
1000
411603
1002
}
  0
LINE
  5
12D
330
11F
100
AcDbEntity
  8
_ARDEX - BUTYNOL_
 62
     7
100
AcDbLine
 10
-2.700000000000183
 20
13.50814450821415
 30
0.0
 11
-2.700000000000183
 21
55.83024439072133
 31
0.0
1001
REVIT
1002
{
1070
     1
1000
550659
1002
}
1002
{
1070
     5
1000
515708
1002
}
1002
{
1070
     3
1000
411603
1002
}
  0
LINE
  5
12E
330
11F
100
AcDbEntity
  8
_ARDEX - WELDTEC_
100
AcDbLine
 10
-2.700000000000184
 20
13.50814450821415
 30
0.0
 11
-3.375000000000169
 21
11.65976796987222
 31
0.0
1001
REVIT
1002
{
1070
     1
1000
550659
1002
}
1002
{
1070
     5
1000
515708
1002
}
  0
LINE
  5
12F
330
11F
100
AcDbEntity
  8
_ARDEX - WELDTEC_
100
AcDbLine
 10
2.699999999999898
 20
13.52002383104799
 30
0.0
 11
3.374999999999915
 21
11.65976796987222
 31
0.0
1001
REVIT
1002
{
1070
     1
1000
550659
1002
}
1002
{
1070
     5
1000
515708
1002
}
  0
LINE
  5
130
330
11F
100
AcDbEntity
  8
_ARDEX - WELDTEC_
100
AcDbLine
 10
-3.375000000000169
 20
11.65976796987222
 30
0.0
 11
3.374999999999915
 21
11.65976796987222
 31
0.0
1001
REVIT
1002
{
1070
     1
1000
550659
1002
}
1002
{
1070
     5
1000
515708
1002
}
  0
LINE
  5
131
330
11F
100
AcDbEntity
  8
_ARDEX - BUTYNOL_
 62
     7
100
AcDbLine
 10
-3.697357332479962
 20
54.10937371013273
 30
0.0
 11
3.701553042374543
 21
55.41400123706321
 31
0.0
1001
REVIT
1002
{
1070
     1
1000
550659
1002
}
1002
{
1070
     5
1000
515708
1002
}
1002
{
1070
     3
1000
411603
1002
}
  0
LINE
  5
132
330
11F
100
AcDbEntity
  8
_ARDEX - BUTYNOL_
 62
     7
100
AcDbLine
 10
-3.697357332479917
 20
11.60583074474921
 30
0.0
 11
3.701553042374588
 21
12.9104582716797
 31
0.0
1001
REVIT
1002
{
1070
     1
1000
550659
1002
}
1002
{
1070
     5
1000
515708
1002
}
1002
{
1070
     3
1000
411603
1002
}
  0
LINE
  5
133
330
11F
100
AcDbEntity
  8
_ARDEX - BUTYNOL_
 62
     7
100
AcDbLine
 10
-3.697357332480011
 20
51.98419656186355
 30
0.0
 11
3.701553042374494
 21
53.28882408879404
 31
0.0
1001
REVIT
1002
{
1070
     1
1000
550659
1002
}
1002
{
1070
     5
1000
515708
1002
}
1002
{
1070
     3
1000
411603
1002
}
  0
LINE
  5
134
330
11F
100
AcDbEntity
  8
_ARDEX - BUTYNOL_
 62
     7
100
AcDbLine
 10
-3.697357332480011
 20
49.85901941359437
 30
0.0
 11
3.701553042374494
 21
51.16364694052486
 31
0.0
1001
REVIT
1002
{
1070
     1
1000
550659
1002
}
1002
{
1070
     5
1000
515708
1002
}
1002
{
1070
     3
1000
411603
1002
}
  0
LINE
  5
135
330
11F
100
AcDbEntity
  8
_ARDEX - BUTYNOL_
 62
     7
100
AcDbLine
 10
-3.697357332480011
 20
47.73384226532519
 30
0.0
 11
3.701553042374494
 21
49.03846979225569
 31
0.0
1001
REVIT
1002
{
1070
     1
1000
550659
1002
}
1002
{
1070
     5
1000
515708
1002
}
1002
{
1070
     3
1000
411603
1002
}
  0
LINE
  5
136
330
11F
100
AcDbEntity
  8
_ARDEX - BUTYNOL_
 62
     7
100
AcDbLine
 10
-3.697357332480011
 20
45.60866511705603
 30
0.0
 11
3.701553042374494
 21
46.91329264398651
 31
0.0
1001
REVIT
1002
{
1070
     1
1000
550659
1002
}
1002
{
1070
     5
1000
515708
1002
}
1002
{
1070
     3
1000
411603
1002
}
  0
LINE
  5
137
330
11F
100
AcDbEntity
  8
_ARDEX - BUTYNOL_
 62
     7
100
AcDbLine
 10
-3.697357332480011
 20
43.48348796878685
 30
0.0
 11
3.701553042374494
 21
44.78811549571733
 31
0.0
1001
REVIT
1002
{
1070
     1
1000
550659
1002
}
1002
{
1070
     5
1000
515708
1002
}
1002
{
1070
     3
1000
411603
1002
}
  0
LINE
  5
138
330
11F
100
AcDbEntity
  8
_ARDEX - BUTYNOL_
 62
     7
100
AcDbLine
 10
-3.697357332480011
 20
41.35831082051766
 30
0.0
 11
3.701553042374494
 21
42.66293834744815
 31
0.0
1001
REVIT
1002
{
1070
     1
1000
550659
1002
}
1002
{
1070
     5
1000
515708
1002
}
1002
{
1070
     3
1000
411603
1002
}
  0
LINE
  5
139
330
11F
100
AcDbEntity
  8
_ARDEX - BUTYNOL_
 62
     7
100
AcDbLine
 10
-3.697357332480011
 20
39.23313367224849
 30
0.0
 11
3.701553042374494
 21
40.53776119917897
 31
0.0
1001
REVIT
1002
{
1070
     1
1000
550659
1002
}
1002
{
1070
     5
1000
515708
1002
}
1002
{
1070
     3
1000
411603
1002
}
  0
LINE
  5
13A
330
11F
100
AcDbEntity
  8
_ARDEX - BUTYNOL_
 62
     7
100
AcDbLine
 10
-3.697357332480011
 20
37.10795652397932
 30
0.0
 11
3.701553042374494
 21
38.41258405090981
 31
0.0
1001
REVIT
1002
{
1070
     1
1000
550659
1002
}
1002
{
1070
     5
1000
515708
1002
}
1002
{
1070
     3
1000
411603
1002
}
  0
LINE
  5
13B
330
11F
100
AcDbEntity
  8
_ARDEX - BUTYNOL_
 62
     7
100
AcDbLine
 10
-3.697357332480011
 20
34.98277937571014
 30
0.0
 11
3.701553042374494
 21
36.28740690264063
 31
0.0
1001
REVIT
1002
{
1070
     1
1000
550659
1002
}
1002
{
1070
     5
1000
515708
1002
}
1002
{
1070
     3
1000
411603
1002
}
  0
LINE
  5
13C
330
11F
100
AcDbEntity
  8
_ARDEX - BUTYNOL_
 62
     7
100
AcDbLine
 10
-3.697357332480011
 20
32.85760222744097
 30
0.0
 11
3.701553042374494
 21
34.16222975437146
 31
0.0
1001
REVIT
1002
{
1070
     1
1000
550659
1002
}
1002
{
1070
     5
1000
515708
1002
}
1002
{
1070
     3
1000
411603
1002
}
  0
LINE
  5
13D
330
11F
100
AcDbEntity
  8
_ARDEX - BUTYNOL_
 62
     7
100
AcDbLine
 10
-3.697357332480011
 20
30.73242507917179
 30
0.0
 11
3.701553042374494
 21
32.03705260610229
 31
0.0
1001
REVIT
1002
{
1070
     1
1000
550659
1002
}
1002
{
1070
     5
1000
515708
1002
}
1002
{
1070
     3
1000
411603
1002
}
  0
LINE
  5
13E
330
11F
100
AcDbEntity
  8
_ARDEX - BUTYNOL_
 62
     7
100
AcDbLine
 10
-3.697357332480011
 20
28.60724793090262
 30
0.0
 11
3.701553042374494
 21
29.91187545783311
 31
0.0
1001
REVIT
1002
{
1070
     1
1000
550659
1002
}
1002
{
1070
     5
1000
515708
1002
}
1002
{
1070
     3
1000
411603
1002
}
  0
LINE
  5
13F
330
11F
100
AcDbEntity
  8
_ARDEX - BUTYNOL_
 62
     7
100
AcDbLine
 10
-3.697357332480011
 20
26.48207078263344
 30
0.0
 11
3.701553042374494
 21
27.78669830956393
 31
0.0
1001
REVIT
1002
{
1070
     1
1000
550659
1002
}
1002
{
1070
     5
1000
515708
1002
}
1002
{
1070
     3
1000
411603
1002
}
  0
LINE
  5
140
330
11F
100
AcDbEntity
  8
_ARDEX - BUTYNOL_
 62
     7
100
AcDbLine
 10
-3.697357332480011
 20
24.35689363436427
 30
0.0
 11
3.701553042374494
 21
25.66152116129476
 31
0.0
1001
REVIT
1002
{
1070
     1
1000
550659
1002
}
1002
{
1070
     5
1000
515708
1002
}
1002
{
1070
     3
1000
411603
1002
}
  0
LINE
  5
141
330
11F
100
AcDbEntity
  8
_ARDEX - BUTYNOL_
 62
     7
100
AcDbLine
 10
-3.697357332480011
 20
22.23171648609509
 30
0.0
 11
3.701553042374494
 21
23.53634401302558
 31
0.0
1001
REVIT
1002
{
1070
     1
1000
550659
1002
}
1002
{
1070
     5
1000
515708
1002
}
1002
{
1070
     3
1000
411603
1002
}
  0
LINE
  5
142
330
11F
100
AcDbEntity
  8
_ARDEX - BUTYNOL_
 62
     7
100
AcDbLine
 10
-3.697357332480011
 20
20.10653933782592
 30
0.0
 11
3.701553042374494
 21
21.41116686475641
 31
0.0
1001
REVIT
1002
{
1070
     1
1000
550659
1002
}
1002
{
1070
     5
1000
515708
1002
}
1002
{
1070
     3
1000
411603
1002
}
  0
LINE
  5
143
330
11F
100
AcDbEntity
  8
_ARDEX - BUTYNOL_
 62
     7
100
AcDbLine
 10
-3.697357332480011
 20
17.98136218955674
 30
0.0
 11
3.701553042374494
 21
19.28598971648723
 31
0.0
1001
REVIT
1002
{
1070
     1
1000
550659
1002
}
1002
{
1070
     5
1000
515708
1002
}
1002
{
1070
     3
1000
411603
1002
}
  0
LINE
  5
144
330
11F
100
AcDbEntity
  8
_ARDEX - BUTYNOL_
 62
     7
100
AcDbLine
 10
-3.697357332480011
 20
15.85618504128756
 30
0.0
 11
3.701553042374494
 21
17.16081256821805
 31
0.0
1001
REVIT
1002
{
1070
     1
1000
550659
1002
}
1002
{
1070
     5
1000
515708
1002
}
1002
{
1070
     3
1000
411603
1002
}
  0
LINE
  5
145
330
11F
100
AcDbEntity
  8
_ARDEX - BUTYNOL_
 62
     7
100
AcDbLine
 10
-3.697357332480011
 20
13.73100789301839
 30
0.0
 11
3.701553042374494
 21
15.03563541994888
 31
0.0
1001
REVIT
1002
{
1070
     1
1000
550659
1002
}
1002
{
1070
     5
1000
515708
1002
}
1002
{
1070
     3
1000
411603
1002
}
  0
LINE
  5
146
330
11F
100
AcDbEntity
  8
_ARDEX - BUTYNOL_
 62
     7
100
AcDbLine
 10
-6.781758637354211
 20
0.000000000000055
 30
0.0
 11
6.781758637341483
 21
0.000000000000055
 31
0.0
1001
REVIT
1002
{
1070
     1
1000
550659
1002
}
1002
{
1070
     5
1000
515708
1002
}
1002
{
1070
     3
1000
411603
1002
}
  0
ENDBLK
  5
148
330
11F
100
AcDbEntity
  8
0
100
AcDbBlockEnd
  0
BLOCK
  5
172
330
14A
100
AcDbEntity
  8
0
100
AcDbBlockBegin
  2
_ARDEX_ Fixing 2 - _ARDEX_ Fixing 2-604492-AB-19 PLANT EQUIPMENT SUPPORTS
 70
     0
 10
0.0
 20
0.0
 30
0.0
  3
_ARDEX_ Fixing 2 - _ARDEX_ Fixing 2-604492-AB-19 PLANT EQUIPMENT SUPPORTS
  1

  0
LINE
  5
14B
330
14A
100
AcDbEntity
  8
_ARDEX - BUTYNOL_
 62
     7
100
AcDbLine
 10
-3.375000000000211
 20
-0.0000000000000169
 30
0.0
 11
-3.375000000000211
 21
-11.65976796987211
 31
0.0
1001
REVIT
1002
{
1070
     1
1000
550947
1002
}
1002
{
1070
     5
1000
515708
1002
}
1002
{
1070
     3
1000
411603
1002
}
  0
LINE
  5
14C
330
14A
100
AcDbEntity
  8
_ARDEX - BUTYNOL_
 62
     7
100
AcDbLine
 10
3.374999999999872
 20
-0.0000000000000085
 30
0.0
 11
3.374999999999872
 21
-11.65976796987234
 31
0.0
1001
REVIT
1002
{
1070
     1
1000
550947
1002
}
1002
{
1070
     5
1000
515708
1002
}
1002
{
1070
     3
1000
411603
1002
}
  0
LINE
  5
14D
330
14A
100
AcDbEntity
  8
_ARDEX - WELDTEC_
100
AcDbLine
 10
4.871304994127068
 20
4.872589663414244
 30
0.0
 11
-4.940198141383466
 21
4.872589663414244
 31
0.0
1001
REVIT
1002
{
1070
     1
1000
550947
1002
}
1002
{
1070
     5
1000
515708
1002
}
  0
LINE
  5
14E
330
14A
100
AcDbEntity
  8
_ARDEX - WELDTEC_
100
AcDbLine
 10
-6.781758637354211
 20
-0.0000000000000508
 30
0.0
 11
-6.781758637354211
 21
3.975378733337736
 31
0.0
1001
REVIT
1002
{
1070
     1
1000
550947
1002
}
1002
{
1070
     5
1000
515708
1002
}
  0
LINE
  5
14F
330
14A
100
AcDbEntity
  8
_ARDEX - WELDTEC_
100
AcDbLine
 10
6.781758637341484
 20
-0.0000000000000085
 30
0.0
 11
6.781758637341484
 21
3.975378733320385
 31
0.0
1001
REVIT
1002
{
1070
     1
1000
550947
1002
}
1002
{
1070
     5
1000
515708
1002
}
  0
LINE
  5
150
330
14A
100
AcDbEntity
  8
_ARDEX - WELDTEC_
100
AcDbLine
 10
-3.375000000000211
 20
-0.0000000000000169
 30
0.0
 11
-3.375000000000211
 21
3.975378733338294
 31
0.0
1001
REVIT
1002
{
1070
     1
1000
550947
1002
}
1002
{
1070
     5
1000
515708
1002
}
  0
LINE
  5
151
330
14A
100
AcDbEntity
  8
_ARDEX - WELDTEC_
100
AcDbLine
 10
3.374999999999915
 20
-0.0000000000000085
 30
0.0
 11
3.374999999999915
 21
3.975378733338438
 31
0.0
1001
REVIT
1002
{
1070
     1
1000
550947
1002
}
1002
{
1070
     5
1000
515708
1002
}
  0
ARC
  5
152
330
14A
100
AcDbEntity
  8
_ARDEX - WELDTEC_
100
AcDbCircle
 10
-5.078379318677021
 20
2.817669022694195
 30
0.0
 40
2.059561331282282
100
AcDbArc
 50
34.20217022320095
 51
145.7978297768178
1001
REVIT
1002
{
1070
     1
1000
550947
1002
}
1002
{
1070
     5
1000
515708
1002
}
  0
ARC
  5
153
330
14A
100
AcDbEntity
  8
_ARDEX - WELDTEC_
100
AcDbCircle
 10
0.0000000000000181
 20
-1.923812411084265
 30
0.0
 40
6.796402074473588
100
AcDbArc
 50
60.22559429512451
 51
119.774405704878
1001
REVIT
1002
{
1070
     1
1000
550947
1002
}
1002
{
1070
     5
1000
515708
1002
}
  0
ARC
  5
154
330
14A
100
AcDbEntity
  8
_ARDEX - WELDTEC_
100
AcDbCircle
 10
5.078379318664634
 20
2.830924399645125
 30
0.0
 40
2.052139572520297
100
AcDbArc
 50
33.8960820658984
 51
146.1039179334942
1001
REVIT
1002
{
1070
     1
1000
550947
1002
}
1002
{
1070
     5
1000
515708
1002
}
  0
ARC
  5
155
330
14A
100
AcDbEntity
  8
_ARDEX - BUTYNOL_
 62
     7
100
AcDbCircle
 10
-6.459434595124356
 20
-53.60414531292455
 30
0.0
 40
9.508461640761447
100
AcDbArc
 50
313.2698898507113
 51
344.4278153972983
1001
REVIT
1002
{
1070
     1
1000
550947
1002
}
1002
{
1070
     5
1000
515708
1002
}
1002
{
1070
     3
1000
411603
1002
}
  0
ARC
  5
156
330
14A
100
AcDbEntity
  8
_ARDEX - BUTYNOL_
 62
     7
100
AcDbCircle
 10
6.535010021884008
 20
-53.56630254748311
 30
0.0
 40
9.508461640761458
100
AcDbArc
 50
193.7742860026732
 51
227.0638257761034
1001
REVIT
1002
{
1070
     1
1000
550947
1002
}
1002
{
1070
     5
1000
515708
1002
}
1002
{
1070
     3
1000
411603
1002
}
  0
LINE
  5
157
330
14A
100
AcDbEntity
  8
_ARDEX - BUTYNOL_
 62
     7
100
AcDbLine
 10
2.699999999999898
 20
-13.52002383104799
 30
0.0
 11
2.699999999999898
 21
-56.15671277951046
 31
0.0
1001
REVIT
1002
{
1070
     1
1000
550947
1002
}
1002
{
1070
     5
1000
515708
1002
}
1002
{
1070
     3
1000
411603
1002
}
  0
LINE
  5
158
330
14A
100
AcDbEntity
  8
_ARDEX - BUTYNOL_
 62
     7
100
AcDbLine
 10
-2.700000000000183
 20
-13.50814450821415
 30
0.0
 11
-2.700000000000183
 21
-55.83024439072133
 31
0.0
1001
REVIT
1002
{
1070
     1
1000
550947
1002
}
1002
{
1070
     5
1000
515708
1002
}
1002
{
1070
     3
1000
411603
1002
}
  0
LINE
  5
159
330
14A
100
AcDbEntity
  8
_ARDEX - WELDTEC_
100
AcDbLine
 10
-2.700000000000184
 20
-13.50814450821415
 30
0.0
 11
-3.375000000000169
 21
-11.65976796987222
 31
0.0
1001
REVIT
1002
{
1070
     1
1000
550947
1002
}
1002
{
1070
     5
1000
515708
1002
}
  0
LINE
  5
15A
330
14A
100
AcDbEntity
  8
_ARDEX - WELDTEC_
100
AcDbLine
 10
2.699999999999898
 20
-13.52002383104799
 30
0.0
 11
3.374999999999915
 21
-11.65976796987222
 31
0.0
1001
REVIT
1002
{
1070
     1
1000
550947
1002
}
1002
{
1070
     5
1000
515708
1002
}
  0
LINE
  5
15B
330
14A
100
AcDbEntity
  8
_ARDEX - WELDTEC_
100
AcDbLine
 10
-3.375000000000169
 20
-11.65976796987222
 30
0.0
 11
3.374999999999915
 21
-11.65976796987222
 31
0.0
1001
REVIT
1002
{
1070
     1
1000
550947
1002
}
1002
{
1070
     5
1000
515708
1002
}
  0
LINE
  5
15C
330
14A
100
AcDbEntity
  8
_ARDEX - BUTYNOL_
 62
     7
100
AcDbLine
 10
-3.697357332479962
 20
-54.10937371013273
 30
0.0
 11
3.701553042374543
 21
-55.41400123706321
 31
0.0
1001
REVIT
1002
{
1070
     1
1000
550947
1002
}
1002
{
1070
     5
1000
515708
1002
}
1002
{
1070
     3
1000
411603
1002
}
  0
LINE
  5
15D
330
14A
100
AcDbEntity
  8
_ARDEX - BUTYNOL_
 62
     7
100
AcDbLine
 10
-3.697357332479917
 20
-11.60583074474921
 30
0.0
 11
3.701553042374588
 21
-12.9104582716797
 31
0.0
1001
REVIT
1002
{
1070
     1
1000
550947
1002
}
1002
{
1070
     5
1000
515708
1002
}
1002
{
1070
     3
1000
411603
1002
}
  0
LINE
  5
15E
330
14A
100
AcDbEntity
  8
_ARDEX - BUTYNOL_
 62
     7
100
AcDbLine
 10
-3.697357332480011
 20
-51.98419656186355
 30
0.0
 11
3.701553042374494
 21
-53.28882408879404
 31
0.0
1001
REVIT
1002
{
1070
     1
1000
550947
1002
}
1002
{
1070
     5
1000
515708
1002
}
1002
{
1070
     3
1000
411603
1002
}
  0
LINE
  5
15F
330
14A
100
AcDbEntity
  8
_ARDEX - BUTYNOL_
 62
     7
100
AcDbLine
 10
-3.697357332480011
 20
-49.85901941359437
 30
0.0
 11
3.701553042374494
 21
-51.16364694052486
 31
0.0
1001
REVIT
1002
{
1070
     1
1000
550947
1002
}
1002
{
1070
     5
1000
515708
1002
}
1002
{
1070
     3
1000
411603
1002
}
  0
LINE
  5
160
330
14A
100
AcDbEntity
  8
_ARDEX - BUTYNOL_
 62
     7
100
AcDbLine
 10
-3.697357332480011
 20
-47.73384226532519
 30
0.0
 11
3.701553042374494
 21
-49.03846979225569
 31
0.0
1001
REVIT
1002
{
1070
     1
1000
550947
1002
}
1002
{
1070
     5
1000
515708
1002
}
1002
{
1070
     3
1000
411603
1002
}
  0
LINE
  5
161
330
14A
100
AcDbEntity
  8
_ARDEX - BUTYNOL_
 62
     7
100
AcDbLine
 10
-3.697357332480011
 20
-45.60866511705603
 30
0.0
 11
3.701553042374494
 21
-46.91329264398651
 31
0.0
1001
REVIT
1002
{
1070
     1
1000
550947
1002
}
1002
{
1070
     5
1000
515708
1002
}
1002
{
1070
     3
1000
411603
1002
}
  0
LINE
  5
162
330
14A
100
AcDbEntity
  8
_ARDEX - BUTYNOL_
 62
     7
100
AcDbLine
 10
-3.697357332480011
 20
-43.48348796878685
 30
0.0
 11
3.701553042374494
 21
-44.78811549571733
 31
0.0
1001
REVIT
1002
{
1070
     1
1000
550947
1002
}
1002
{
1070
     5
1000
515708
1002
}
1002
{
1070
     3
1000
411603
1002
}
  0
LINE
  5
163
330
14A
100
AcDbEntity
  8
_ARDEX - BUTYNOL_
 62
     7
100
AcDbLine
 10
-3.697357332480011
 20
-41.35831082051766
 30
0.0
 11
3.701553042374494
 21
-42.66293834744815
 31
0.0
1001
REVIT
1002
{
1070
     1
1000
550947
1002
}
1002
{
1070
     5
1000
515708
1002
}
1002
{
1070
     3
1000
411603
1002
}
  0
LINE
  5
164
330
14A
100
AcDbEntity
  8
_ARDEX - BUTYNOL_
 62
     7
100
AcDbLine
 10
-3.697357332480011
 20
-39.23313367224849
 30
0.0
 11
3.701553042374494
 21
-40.53776119917897
 31
0.0
1001
REVIT
1002
{
1070
     1
1000
550947
1002
}
1002
{
1070
     5
1000
515708
1002
}
1002
{
1070
     3
1000
411603
1002
}
  0
LINE
  5
165
330
14A
100
AcDbEntity
  8
_ARDEX - BUTYNOL_
 62
     7
100
AcDbLine
 10
-3.697357332480011
 20
-37.10795652397932
 30
0.0
 11
3.701553042374494
 21
-38.41258405090981
 31
0.0
1001
REVIT
1002
{
1070
     1
1000
550947
1002
}
1002
{
1070
     5
1000
515708
1002
}
1002
{
1070
     3
1000
411603
1002
}
  0
LINE
  5
166
330
14A
100
AcDbEntity
  8
_ARDEX - BUTYNOL_
 62
     7
100
AcDbLine
 10
-3.697357332480011
 20
-34.98277937571014
 30
0.0
 11
3.701553042374494
 21
-36.28740690264063
 31
0.0
1001
REVIT
1002
{
1070
     1
1000
550947
1002
}
1002
{
1070
     5
1000
515708
1002
}
1002
{
1070
     3
1000
411603
1002
}
  0
LINE
  5
167
330
14A
100
AcDbEntity
  8
_ARDEX - BUTYNOL_
 62
     7
100
AcDbLine
 10
-3.697357332480011
 20
-32.85760222744097
 30
0.0
 11
3.701553042374494
 21
-34.16222975437146
 31
0.0
1001
REVIT
1002
{
1070
     1
1000
550947
1002
}
1002
{
1070
     5
1000
515708
1002
}
1002
{
1070
     3
1000
411603
1002
}
  0
LINE
  5
168
330
14A
100
AcDbEntity
  8
_ARDEX - BUTYNOL_
 62
     7
100
AcDbLine
 10
-3.697357332480011
 20
-30.73242507917179
 30
0.0
 11
3.701553042374494
 21
-32.03705260610229
 31
0.0
1001
REVIT
1002
{
1070
     1
1000
550947
1002
}
1002
{
1070
     5
1000
515708
1002
}
1002
{
1070
     3
1000
411603
1002
}
  0
LINE
  5
169
330
14A
100
AcDbEntity
  8
_ARDEX - BUTYNOL_
 62
     7
100
AcDbLine
 10
-3.697357332480011
 20
-28.60724793090262
 30
0.0
 11
3.701553042374494
 21
-29.91187545783311
 31
0.0
1001
REVIT
1002
{
1070
     1
1000
550947
1002
}
1002
{
1070
     5
1000
515708
1002
}
1002
{
1070
     3
1000
411603
1002
}
  0
LINE
  5
16A
330
14A
100
AcDbEntity
  8
_ARDEX - BUTYNOL_
 62
     7
100
AcDbLine
 10
-3.697357332480011
 20
-26.48207078263344
 30
0.0
 11
3.701553042374494
 21
-27.78669830956393
 31
0.0
1001
REVIT
1002
{
1070
     1
1000
550947
1002
}
1002
{
1070
     5
1000
515708
1002
}
1002
{
1070
     3
1000
411603
1002
}
  0
LINE
  5
16B
330
14A
100
AcDbEntity
  8
_ARDEX - BUTYNOL_
 62
     7
100
AcDbLine
 10
-3.697357332480011
 20
-24.35689363436427
 30
0.0
 11
3.701553042374494
 21
-25.66152116129476
 31
0.0
1001
REVIT
1002
{
1070
     1
1000
550947
1002
}
1002
{
1070
     5
1000
515708
1002
}
1002
{
1070
     3
1000
411603
1002
}
  0
LINE
  5
16C
330
14A
100
AcDbEntity
  8
_ARDEX - BUTYNOL_
 62
     7
100
AcDbLine
 10
-3.697357332480011
 20
-22.23171648609509
 30
0.0
 11
3.701553042374494
 21
-23.53634401302558
 31
0.0
1001
REVIT
1002
{
1070
     1
1000
550947
1002
}
1002
{
1070
     5
1000
515708
1002
}
1002
{
1070
     3
1000
411603
1002
}
  0
LINE
  5
16D
330
14A
100
AcDbEntity
  8
_ARDEX - BUTYNOL_
 62
     7
100
AcDbLine
 10
-3.697357332480011
 20
-20.10653933782592
 30
0.0
 11
3.701553042374494
 21
-21.41116686475641
 31
0.0
1001
REVIT
1002
{
1070
     1
1000
550947
1002
}
1002
{
1070
     5
1000
515708
1002
}
1002
{
1070
     3
1000
411603
1002
}
  0
LINE
  5
16E
330
14A
100
AcDbEntity
  8
_ARDEX - BUTYNOL_
 62
     7
100
AcDbLine
 10
-3.697357332480011
 20
-17.98136218955674
 30
0.0
 11
3.701553042374494
 21
-19.28598971648723
 31
0.0
1001
REVIT
1002
{
1070
     1
1000
550947
1002
}
1002
{
1070
     5
1000
515708
1002
}
1002
{
1070
     3
1000
411603
1002
}
  0
LINE
  5
16F
330
14A
100
AcDbEntity
  8
_ARDEX - BUTYNOL_
 62
     7
100
AcDbLine
 10
-3.697357332480011
 20
-15.85618504128756
 30
0.0
 11
3.701553042374494
 21
-17.16081256821805
 31
0.0
1001
REVIT
1002
{
1070
     1
1000
550947
1002
}
1002
{
1070
     5
1000
515708
1002
}
1002
{
1070
     3
1000
411603
1002
}
  0
LINE
  5
170
330
14A
100
AcDbEntity
  8
_ARDEX - BUTYNOL_
 62
     7
100
AcDbLine
 10
-3.697357332480011
 20
-13.73100789301839
 30
0.0
 11
3.701553042374494
 21
-15.03563541994888
 31
0.0
1001
REVIT
1002
{
1070
     1
1000
550947
1002
}
1002
{
1070
     5
1000
515708
1002
}
1002
{
1070
     3
1000
411603
1002
}
  0
LINE
  5
171
330
14A
100
AcDbEntity
  8
_ARDEX - BUTYNOL_
 62
     7
100
AcDbLine
 10
-6.781758637354211
 20
-0.000000000000055
 30
0.0
 11
6.781758637341483
 21
-0.000000000000055
 31
0.0
1001
REVIT
1002
{
1070
     1
1000
550947
1002
}
1002
{
1070
     5
1000
515708
1002
}
1002
{
1070
     3
1000
411603
1002
}
  0
ENDBLK
  5
173
330
14A
100
AcDbEntity
  8
0
100
AcDbBlockEnd
  0
BLOCK
  5
177
330
175
100
AcDbEntity
  8
0
100
AcDbBlockBegin
  2
_ARDEX_ Lines - Barrier-604440-AB-19 PLANT EQUIPMENT SUPPORTS
 70
     0
 10
0.0
 20
0.0
 30
0.0
  3
_ARDEX_ Lines - Barrier-604440-AB-19 PLANT EQUIPMENT SUPPORTS
  1

  0
LINE
  5
176
330
175
100
AcDbEntity
  8
_ARDEX - BUTYNOL_
  6
Dash
 62
     7
370
    50
100
AcDbLine
 10
36.38725678916755
 20
0.0
 30
0.0
 11
-0.0000000000024365
 21
0.0
 31
0.0
1001
REVIT
1002
{
1070
     1
1000
594511
1002
}
1002
{
1070
     5
1000
569184
1002
}
1002
{
1070
     3
1000
342012
1002
}
  0
ENDBLK
  5
178
330
175
100
AcDbEntity
  8
0
100
AcDbBlockEnd
  0
BLOCK
  5
17C
330
17A
100
AcDbEntity
  8
0
100
AcDbBlockBegin
  2
_ARDEX_ Lines - Barrier-604392-AB-19 PLANT EQUIPMENT SUPPORTS
 70
     0
 10
0.0
 20
0.0
 30
0.0
  3
_ARDEX_ Lines - Barrier-604392-AB-19 PLANT EQUIPMENT SUPPORTS
  1

  0
LINE
  5
17B
330
17A
100
AcDbEntity
  8
_ARDEX - BUTYNOL_
  6
Dash
 62
     7
370
    50
100
AcDbLine
 10
146.9429059901594
 20
0.0
 30
0.0
 11
-0.0000000000024365
 21
0.0
 31
0.0
1001
REVIT
1002
{
1070
     1
1000
594621
1002
}
1002
{
1070
     5
1000
569184
1002
}
1002
{
1070
     3
1000
342012
1002
}
  0
ENDBLK
  5
17D
330
17A
100
AcDbEntity
  8
0
100
AcDbBlockEnd
  0
BLOCK
  5
181
330
17F
100
AcDbEntity
  8
0
100
AcDbBlockBegin
  2
_ARDEX_ Lines - Barrier-604441-AB-19 PLANT EQUIPMENT SUPPORTS
 70
     0
 10
0.0
 20
0.0
 30
0.0
  3
_ARDEX_ Lines - Barrier-604441-AB-19 PLANT EQUIPMENT SUPPORTS
  1

  0
LINE
  5
180
330
17F
100
AcDbEntity
  8
_ARDEX - BUTYNOL_
  6
Dash
 62
     7
370
    50
100
AcDbLine
 10
36.38725678916681
 20
0.0
 30
0.0
 11
-0.0000000000024365
 21
0.0
 31
0.0
1001
REVIT
1002
{
1070
     1
1000
594997
1002
}
1002
{
1070
     5
1000
569184
1002
}
1002
{
1070
     3
1000
342012
1002
}
  0
ENDBLK
  5
182
330
17F
100
AcDbEntity
  8
0
100
AcDbBlockEnd
  0
BLOCK
  5
186
330
184
100
AcDbEntity
  8
0
100
AcDbBlockBegin
  2
_ARDEX_ Lines - Barrier-604403-AB-19 PLANT EQUIPMENT SUPPORTS
 70
     0
 10
0.0
 20
0.0
 30
0.0
  3
_ARDEX_ Lines - Barrier-604403-AB-19 PLANT EQUIPMENT SUPPORTS
  1

  0
LINE
  5
185
330
184
100
AcDbEntity
  8
_ARDEX - BUTYNOL_
  6
Dash
 62
     7
370
    50
100
AcDbLine
 10
146.8647809901596
 20
0.0
 30
0.0
 11
-0.0000000000024365
 21
0.0
 31
0.0
1001
REVIT
1002
{
1070
     1
1000
594998
1002
}
1002
{
1070
     5
1000
569184
1002
}
1002
{
1070
     3
1000
342012
1002
}
  0
ENDBLK
  5
187
330
184
100
AcDbEntity
  8
0
100
AcDbBlockEnd
  0
BLOCK
  5
18B
330
189
100
AcDbEntity
  8
0
100
AcDbBlockBegin
  2
_ARDEX_ Lines - Membrane-595332-AB-19 PLANT EQUIPMENT SUPPORTS
 70
     0
 10
0.0
 20
0.0
 30
0.0
  3
_ARDEX_ Lines - Membrane-595332-AB-19 PLANT EQUIPMENT SUPPORTS
  1

  0
LINE
  5
18A
330
189
100
AcDbEntity
  8
_ARDEX - BUTYNOL_
  6
Dash
 62
     7
370
   100
100
AcDbLine
 10
146.035533905933
 20
0.0
 30
0.0
 11
-0.0000000000027072
 21
0.0
 31
0.0
1001
REVIT
1002
{
1070
     1
1000
595331
1002
}
1002
{
1070
     5
1000
569180
1002
}
1002
{
1070
     3
1000
352413
1002
}
  0
ENDBLK
  5
18C
330
189
100
AcDbEntity
  8
0
100
AcDbBlockEnd
  0
BLOCK
  5
1A0
330
195
100
AcDbEntity
  8
0
100
AcDbBlockBegin
  2
Fix - Nail - Nail-611824-AB-19 PLANT EQUIPMENT SUPPORTS
 70
     0
 10
0.0
 20
0.0
 30
0.0
  3
Fix - Nail - Nail-611824-AB-19 PLANT EQUIPMENT SUPPORTS
  1

  0
LINE
  5
196
330
195
100
AcDbEntity
  8
_ARDEX - BUTYNOL_
 62
     7
100
AcDbLine
 10
-0.7888887994108523
 20
3.000000000000008
 30
0.0
 11
-0.7888887994108631
 21
-2.999999999999992
 31
0.0
1001
REVIT
1002
{
1070
     1
1000
611803
1002
}
1002
{
1070
     5
1000
611702
1002
}
1002
{
1070
     3
1000
411603
1002
}
  0
LINE
  5
197
330
195
100
AcDbEntity
  8
_ARDEX - BUTYNOL_
 62
     7
100
AcDbLine
 10
-0.7888887994108631
 20
-2.999999999999992
 30
0.0
 11
-0.0000000000000221
 21
-2.999999999999993
 31
0.0
1001
REVIT
1002
{
1070
     1
1000
611803
1002
}
1002
{
1070
     5
1000
611702
1002
}
1002
{
1070
     3
1000
411603
1002
}
  0
LINE
  5
198
330
195
100
AcDbEntity
  8
_ARDEX - BUTYNOL_
 62
     7
100
AcDbLine
 10
-0.0000000000000221
 20
-2.999999999999993
 30
0.0
 11
-0.0000000000000114
 21
3.000000000000007
 31
0.0
1001
REVIT
1002
{
1070
     1
1000
611803
1002
}
1002
{
1070
     5
1000
611702
1002
}
1002
{
1070
     3
1000
411603
1002
}
  0
LINE
  5
199
330
195
100
AcDbEntity
  8
_ARDEX - BUTYNOL_
 62
     7
100
AcDbLine
 10
-0.0000000000000114
 20
3.000000000000007
 30
0.0
 11
-0.7888887994108523
 21
3.000000000000008
 31
0.0
1001
REVIT
1002
{
1070
     1
1000
611803
1002
}
1002
{
1070
     5
1000
611702
1002
}
1002
{
1070
     3
1000
411603
1002
}
  0
LINE
  5
19A
330
195
100
AcDbEntity
  8
_ARDEX - BUTYNOL_
 62
     7
100
AcDbLine
 10
2.999999999999996
 20
-1.500000000000345
 30
0.0
 11
76.24711288910784
 21
-1.500000000000345
 31
0.0
1001
REVIT
1002
{
1070
     1
1000
611803
1002
}
1002
{
1070
     5
1000
611702
1002
}
1002
{
1070
     3
1000
411603
1002
}
  0
LINE
  5
19B
330
195
100
AcDbEntity
  8
_ARDEX - BUTYNOL_
 62
     7
100
AcDbLine
 10
80.0
 20
0.0
 30
0.0
 11
76.24711288910784
 21
1.49999999999972
 31
0.0
1001
REVIT
1002
{
1070
     1
1000
611803
1002
}
1002
{
1070
     5
1000
611702
1002
}
1002
{
1070
     3
1000
411603
1002
}
  0
LINE
  5
19C
330
195
100
AcDbEntity
  8
_ARDEX - BUTYNOL_
 62
     7
100
AcDbLine
 10
76.24711288910784
 20
1.49999999999972
 30
0.0
 11
2.999999999999994
 21
1.49999999999972
 31
0.0
1001
REVIT
1002
{
1070
     1
1000
611803
1002
}
1002
{
1070
     5
1000
611702
1002
}
1002
{
1070
     3
1000
411603
1002
}
  0
LINE
  5
19D
330
195
100
AcDbEntity
  8
_ARDEX - BUTYNOL_
 62
     7
100
AcDbLine
 10
80.0
 20
0.0
 30
0.0
 11
76.24711288910784
 21
-1.500000000000345
 31
0.0
1001
REVIT
1002
{
1070
     1
1000
611803
1002
}
1002
{
1070
     5
1000
611702
1002
}
1002
{
1070
     3
1000
411603
1002
}
  0
LINE
  5
19E
330
195
100
AcDbEntity
  8
_ARDEX - BUTYNOL_
 62
     7
100
AcDbLine
 10
2.999999999999996
 20
-1.500000000000321
 30
0.0
 11
-0.0000000000000085
 21
-1.500000000000321
 31
0.0
1001
REVIT
1002
{
1070
     1
1000
611803
1002
}
1002
{
1070
     5
1000
611702
1002
}
1002
{
1070
     3
1000
411603
1002
}
  0
LINE
  5
19F
330
195
100
AcDbEntity
  8
_ARDEX - BUTYNOL_
 62
     7
100
AcDbLine
 10
2.999999999999996
 20
1.499999999999745
 30
0.0
 11
-0.0000000000000085
 21
1.499999999999745
 31
0.0
1001
REVIT
1002
{
1070
     1
1000
611803
1002
}
1002
{
1070
     5
1000
611702
1002
}
1002
{
1070
     3
1000
411603
1002
}
  0
ENDBLK
  5
1A1
330
195
100
AcDbEntity
  8
0
100
AcDbBlockEnd
  0
BLOCK
  5
22B
330
1CA
100
AcDbEntity
  8
0
100
AcDbBlockBegin
  2
_ARDEX_ Landscape Title block - ARDEX Logo_dwg-603482-PLANT EQUIPMENT SUPPORTS
 70
     0
 10
0.0
 20
0.0
 30
0.0
  3
_ARDEX_ Landscape Title block - ARDEX Logo_dwg-603482-PLANT EQUIPMENT SUPPORTS
  1

  0
HATCH
  5
22A
330
1CA
100
AcDbEntity
  8
_ARDEX - WELDTEC_
100
AcDbHatch
 10
0.0
 20
0.0
 30
0.0
210
0.0
220
0.0
230
1.0
  2
SOLID
 70
     1
 71
     0
 91
       10
 92
        1
 93
        9
 72
     2
 10
124477.6924476593
 20
57717.91884407958
 40
95604.56878771125
 50
119.6582597659365
 51
135.2772449014122
 73
     1
 72
     2
 10
97569.92099523827
 20
80348.69210974658
 40
60628.55096713104
 50
132.5784142254349
 51
167.1951084870361
 73
     1
 72
     2
 10
84430.2544945385
 20
83335.13079417297
 40
47153.77261030999
 50
167.1951084870365
 51
230.8048915129539
 73
     1
 72
     1
 10
54630.80824474616
 20
46791.03038671248
 11
61031.0658797229
 21
58828.16430584775
 72
     2
 10
101776.0882193553
 20
92587.59123374682
 40
52913.66318785065
 50
140.3564374123571
 51
160.4021121620632
 73
     0
 72
     1
 10
51927.72315465329
 20
74839.45746330507
 11
64132.70340177394
 21
81604.78848708596
 72
     1
 10
64132.70340177394
 20
81604.78848708596
 11
64132.70340177394
 21
42419.71860701207
 72
     1
 10
64132.70340177394
 20
42419.71860701207
 11
77170.09142470383
 21
42419.71860701207
 72
     1
 10
77170.09142470383
 20
42419.71860701207
 11
77170.09142470405
 21
140797.5460612086
 97
        0
 92
        1
 93
       15
 72
     1
 10
99587.9892175987
 20
42419.71860701207
 11
99587.9892175987
 21
93150.58336594923
 72
     1
 10
99587.9892175987
 20
93150.58336594923
 11
104323.244612749
 21
94781.06255447839
 72
     2
 10
104981.1789583829
 20
91893.80516411493
 40
2961.272166041676
 50
257.1629146881614
 51
358.8370853117459
 73
     0
 72
     1
 10
107941.8411889871
 20
91953.90506134176
 11
107941.841188987
 21
42419.71860701207
 72
     1
 10
107941.841188987
 20
42419.71860701207
 11
121218.1847411904
 21
42419.7186070116
 72
     1
 10
121218.1847411904
 20
42419.7186070116
 11
121218.1847411906
 21
100325.0440555206
 72
     2
 10
115257.0429927786
 20
99877.23760612903
 40
5977.937902050918
 50
4.296042690475857
 51
69.70395730952316
 73
     1
 72
     2
 10
117146.8808736564
 20
109112.6270894137
 40
3633.253173235043
 50
272.8987004041956
 51
343.1012995957967
 73
     1
 72
     2
 10
107238.4034856646
 20
112122.807202992
 40
13988.8849002001
 50
343.1012995958001
 51
357.9328247994059
 73
     1
 72
     1
 10
121218.1847411906
 20
111618.2115245613
 11
121218.1847411905
 21
150938.3506316522
 72
     2
 10
117501.9377644241
 20
150938.3506316523
 40
3716.246976766372
 50
359.9999999999992
 51
450.0000000000004
 73
     1
 72
     1
 10
117501.9377644241
 20
154654.5976084187
 11
113759.3810577393
 21
154654.5976084182
 72
     2
 10
138821.7376305251
 20
43198.45589605923
 40
114239.1931098381
 50
102.672909136411
 51
117.4995807340575
 73
     1
 72
     1
 10
86072.69013612203
 20
144530.243755645
 11
86072.69013612182
 21
42419.71860701206
 72
     1
 10
86072.69013612182
 20
42419.71860701207
 11
99587.9892175987
 21
42419.71860701207
 97
        0
 92
        1
 93
        6
 72
     1
 10
99587.9892175987
 20
106990.7139084901
 11
106513.3266407933
 21
109375.2988146446
 72
     2
 10
105781.2900249622
 20
111413.010849934
 40
2165.213140935683
 50
289.7605409069777
 51
356.2394590929184
 73
     1
 72
     1
 10
107941.8411889871
 20
111271.001648431
 11
107941.8411889873
 21
136146.3715334163
 72
     2
 10
106971.8497563286
 20
136110.2439563157
 40
970.663989884431
 50
2.133009904533575
 51
112.1330099047764
 73
     1
 72
     1
 10
106606.1443298939
 20
137009.3813887111
 11
99587.9892175987
 21
133736.7619137283
 72
     1
 10
99587.9892175987
 20
133736.7619137283
 11
99587.9892175987
 21
106990.7139084901
 97
        0
 92
        1
 93
        3
 72
     1
 10
51087.04573740561
 20
89526.02661651836
 11
64132.70340177392
 21
96757.35274203249
 72
     1
 10
64132.70340177394
 20
96757.35274203249
 11
64132.70340177408
 21
113061.0160419619
 72
     2
 10
86373.34223488702
 20
85349.67085119694
 40
35532.58600196028
 50
128.7499156981673
 51
173.2500843018337
 73
     1
 97
        0
 92
        1
 93
        7
 72
     2
 10
159498.6066256473
 20
47171.09768479351
 40
4751.379077781432
 50
269.9999999999983
 51
360.0000000000004
 73
     1
 72
     1
 10
164249.9857034287
 20
47171.09768479354
 11
164249.9857034286
 21
148929.7251247162
 72
     2
 10
153104.0551340759
 20
145652.2312742628
 40
11617.81968342559
 50
16.38612894579416
 51
85.61387105420656
 73
     1
 72
     1
 10
153992.558609905
 20
157236.0258067134
 11
135476.7284421168
 21
157236.025806713
 72
     2
 10
135476.7284421172
 20
132203.633223968
 40
25032.39258274507
 50
90.00000000000087
 51
104.0000000000446
 73
     1
 72
     1
 10
129420.8445770855
 20
156492.4567654637
 11
129420.8445770854
 21
42419.7186070116
 72
     1
 10
129420.8445770854
 20
42419.7186070116
 11
159498.6066256472
 21
42419.71860701208
 97
        0
 92
        1
 93
        6
 72
     1
 10
142697.1881292888
 20
55489.83103482368
 11
149159.4554178724
 21
55489.831034824
 72
     2
 10
149159.4554178724
 20
57304.01776817661
 40
1814.186733352632
 50
270.0000000000007
 51
360.000000000001
 73
     1
 72
     1
 10
150973.642151225
 20
57304.01776817664
 11
150973.642151225
 21
141389.8290366245
 72
     2
 10
148487.8771841638
 20
141389.8290366245
 40
2485.764967061216
 50
0.0000000000003499
 51
90.00000000000033
 73
     1
 72
     1
 10
148487.8771841638
 20
143875.5940036857
 11
142697.1881292891
 21
143875.5940036856
 72
     1
 10
142697.1881292891
 20
143875.5940036856
 11
142697.1881292888
 21
55489.83103482369
 97
        0
 92
        1
 93
       12
 72
     1
 10
172919.8140256379
 20
42419.7186070116
 11
196992.984425274
 21
42419.7186070116
 72
     1
 10
196992.984425274
 20
42419.7186070116
 11
196992.984425274
 21
54546.71171763528
 72
     1
 10
196992.984425274
 20
54546.71171763528
 11
186196.1575778416
 21
54546.71171763528
 72
     1
 10
186196.1575778416
 20
54546.71171763528
 11
186196.1575778406
 21
93476.59036180981
 72
     2
 10
161707.488942156
 20
-25181.90177575424
 40
121159.12119155
 50
281.6609520622133
 51
293.4724250161588
 73
     0
 72
     1
 10
209966.0956403323
 20
85951.52941153274
 11
209966.0956403329
 21
99223.70245050954
 72
     2
 10
169092.3307322618
 20
11417.28922520742
 40
96853.6569327807
 50
65.03808668413701
 51
79.82853623748811
 73
     1
 72
     1
 10
186196.1575778414
 20
106748.763400787
 11
186196.1575778407
 21
134522.6524809155
 72
     2
 10
149649.8952597929
 20
7420.910997906968
 40
132251.585916514
 50
286.0418218054057
 51
291.9581781945935
 73
     0
 72
     1
 10
199102.6932269282
 20
130078.5758650272
 11
199102.6932269291
 21
145460.8194053911
 72
     2
 10
152033.610092587
 20
51290.32160925423
 40
105278.5887171737
 50
63.44281790000926
 51
78.55718209999064
 73
     1
 72
     1
 10
172919.8140256382
 20
154476.3077098232
 11
172919.8140256379
 21
42419.7186070116
 97
        0
 92
        1
 93
       15
 72
     1
 10
200843.9943688388
 20
42419.7186070116
 11
214718.2128208543
 21
42419.7186070116
 72
     1
 10
214718.2128208543
 20
42419.7186070116
 11
225840.6682517806
 21
68725.18316101737
 72
     1
 10
225840.6682517806
 20
68725.18316101737
 11
232246.5421246085
 21
48633.89078637936
 72
     2
 10
215878.5940257774
 20
72169.27135408337
 40
28667.47047495972
 50
304.8171215495268
 51
337.1828784504726
 73
     1
 72
     2
 10
238905.8055971146
 20
62481.42481598525
 40
3685.339995417663
 50
337.1828784504702
 51
369.7138375590516
 73
     1
 72
     1
 10
242538.3079454534
 20
63103.24277257604
 11
234416.0142442291
 21
86692.09649134927
 72
     2
 10
240052.5154725337
 20
88337.50986077392
 40
5871.757083953601
 50
163.7263636887576
 51
201.7263636887611
 73
     0
 72
     1
 10
234597.8742693718
 20
90511.0830934322
 11
240977.2733653132
 21
106520.3588046445
 72
     2
 10
236381.088340801
 20
108071.7744474019
 40
4850.959418109156
 50
341.3481872592003
 51
383.0214723187967
 73
     1
 72
     2
 10
203805.420895314
 20
91153.86535333568
 40
41545.00353168846
 50
26.92877030208263
 51
46.67979184903328
 73
     1
 72
     1
 10
232308.408978194
 20
121379.136051796
 11
228002.309532135
 21
109548.225057822
 72
     1
 10
228002.309532135
 20
109548.225057822
 11
221642.4787337427
 21
132015.9486933683
 72
     2
 10
168731.8755011547
 20
67203.36186232325
 40
83667.21787037084
 50
50.7730691213507
 51
64.40933290079502
 73
     1
 72
     1
 10
204870.9968443084
 20
142663.0680286801
 11
219652.9064905008
 21
89079.28160512716
 72
     1
 10
219652.9064905008
 20
89079.28160512716
 11
200843.9943688388
 21
42419.7186070116
 97
        0
 92
        1
 93
       11
 72
     1
 10
60760.25147079707
 20
33473.4471139251
 11
225743.0881782895
 21
33473.44711392544
 72
     2
 10
195728.5048987643
 20
89689.63940362025
 40
63727.03888457004
 50
298.0983598942144
 51
325.3528772494833
 73
     1
 72
     2
 10
207631.5266048101
 20
81463.83807677157
 40
49258.25409788611
 50
325.3528772494843
 51
362.6471227505195
 73
     1
 72
     2
 10
186230.686382898
 20
80474.39359199833
 40
70681.95505248924
 50
2.647122750518907
 51
35.35287724949006
 73
     1
 72
     2
 10
169807.2708636503
 20
68823.19701422783
 40
90818.46316615475
 50
35.35287724949011
 51
57.50026675947552
 73
     1
 72
     2
 10
145773.4884706048
 20
31097.32782319365
 40
135549.4803950897
 50
57.50026675947544
 51
91.06601590221627
 73
     1
 72
     2
 10
140729.851178483
 20
31097.32782319106
 40
135549.4803950918
 50
88.93398409778516
 51
122.4997332405255
 73
     1
 72
     2
 10
116696.06878544
 20
68823.19701422378
 40
90818.46316615935
 50
122.4997332405263
 51
144.6471227505104
 73
     1
 72
     2
 10
100272.6532661892
 20
80474.39359199847
 40
70681.95505248945
 50
144.6471227505111
 51
177.3528772494822
 73
     1
 72
     2
 10
78871.81304427679
 20
81463.83807677159
 40
49258.25409788603
 50
177.3528772494818
 51
214.6471227505157
 73
     1
 72
     2
 10
90774.83475031492
 20
89689.63940361074
 40
63727.03888455833
 50
214.6471227505147
 51
241.9016401057878
 73
     1
 97
        0
 92
        1
 93
       11
 72
     2
 10
90774.83475032144
 20
89689.63940361852
 40
76114.49352209958
 50
115.6676497836031
 51
145.3528772494841
 73
     0
 72
     2
 10
78871.81304427716
 20
81463.83807677169
 40
61645.7087354179
 50
145.3528772494848
 51
182.6471227505183
 73
     0
 72
     2
 10
100272.6532661902
 20
80474.39359199792
 40
83069.40969002218
 50
182.6471227505189
 51
215.3528772494895
 73
     0
 72
     2
 10
116696.0687854374
 20
68823.19701422652
 40
103205.9178036874
 50
215.3528772494901
 51
237.500266759475
 73
     0
 72
     2
 10
140729.8511784818
 20
31097.32782319603
 40
147936.9350326188
 50
237.5002667594748
 51
270.9767443388683
 73
     0
 72
     2
 10
145773.488470605
 20
31097.32782319397
 40
147936.9350326207
 50
269.0232556611323
 51
302.4997332405255
 73
     0
 72
     2
 10
169807.2708636478
 20
68823.19701422454
 40
103205.9178036901
 50
302.4997332405259
 51
324.6471227505102
 73
     0
 72
     2
 10
186230.6863828967
 20
80474.39359199808
 40
83069.40969002223
 50
324.6471227505111
 51
357.3528772494815
 73
     0
 72
     2
 10
207631.5266048085
 20
81463.8380767721
 40
61645.70873541929
 50
357.3528772494821
 51
394.6471227505164
 73
     0
 72
     2
 10
195728.5048987675
 20
89689.63940361675
 40
76114.49352209723
 50
34.64712275051661
 51
64.33235021639949
 73
     0
 72
     1
 10
228697.516901105
 20
21085.99247639351
 11
57805.82274798077
 21
21085.99247639414
 97
        0
 75
     0
 76
     1
 98
        1
 10
0.0
 20
0.0
450
        0
451
        0
460
0.0
461
0.0
452
        0
462
0.0
453
        0
470

1001
REVIT
1002
{
1070
     1
1000
500026
1002
}
1002
{
1070
     5
1000
333213
1002
}
  0
ENDBLK
  5
22C
330
1CA
100
AcDbEntity
  8
0
100
AcDbBlockEnd
  0
BLOCK
  5
256
330
22D
100
AcDbEntity
  8
0
100
AcDbBlockBegin
  2
_ARDEX_ Landscape Title block - _ARDEX_ Landscape Title block-333213-PLANT EQUIPMENT SUPPORTS
 70
     0
 10
0.0
 20
0.0
 30
0.0
  3
_ARDEX_ Landscape Title block - _ARDEX_ Landscape Title block-333213-PLANT EQUIPMENT SUPPORTS
  1

  0
LINE
  5
22E
330
22D
100
AcDbEntity
  8
_ARDEX - WELDTEC_
100
AcDbLine
 10
5.3206767357453
 20
0.1047184170705877
 30
0.0
 11
5.3206767357453
 21
20.1047184170714
 31
0.0
1001
REVIT
1002
{
1070
     1
1000
500026
1002
}
1002
{
1070
     5
1000
333213
1002
}
  0
LINE
  5
22F
330
22D
100
AcDbEntity
  8
_ARDEX - WELDTEC_
100
AcDbLine
 10
218.5398289799351
 20
10.10471841707111
 30
0.0
 11
255.7980057156809
 21
10.10471841707111
 31
0.0
1001
REVIT
1002
{
1070
     1
1000
500026
1002
}
1002
{
1070
     5
1000
333213
1002
}
  0
LINE
  5
230
330
22D
100
AcDbEntity
  8
_ARDEX - WELDTEC_
100
AcDbLine
 10
285.3206767356986
 20
0.104718417071116
 30
0.0
 11
285.3206767356986
 21
20.10471841707112
 31
0.0
1001
REVIT
1002
{
1070
     1
1000
500026
1002
}
1002
{
1070
     5
1000
333213
1002
}
  0
LINE
  5
231
330
22D
100
AcDbEntity
  8
_ARDEX - WELDTEC_
100
AcDbLine
 10
93.03982897993519
 20
0.1047184170707532
 30
0.0
 11
93.03982897993519
 21
20.10471841707112
 31
0.0
1001
REVIT
1002
{
1070
     1
1000
500026
1002
}
1002
{
1070
     5
1000
333213
1002
}
  0
LINE
  5
232
330
22D
100
AcDbEntity
  8
_ARDEX - WELDTEC_
100
AcDbLine
 10
285.3206767356986
 20
0.1047184170711139
 30
0.0
 11
5.320676735745351
 21
0.1047184170711139
 31
0.0
1001
REVIT
1002
{
1070
     1
1000
500026
1002
}
1002
{
1070
     5
1000
333213
1002
}
  0
LINE
  5
233
330
22D
100
AcDbEntity
  8
_ARDEX - WELDTEC_
100
AcDbLine
 10
5.3206767357453
 20
20.10471841707112
 30
0.0
 11
285.3206767356986
 21
20.10471841707112
 31
0.0
1001
REVIT
1002
{
1070
     1
1000
500026
1002
}
1002
{
1070
     5
1000
333213
1002
}
  0
LINE
  5
234
330
22D
100
AcDbEntity
  8
_ARDEX - WELDTEC_
100
AcDbLine
 10
218.5398289799351
 20
20.10471841707112
 30
0.0
 11
218.5398289799351
 21
0.1047184170711139
 31
0.0
1001
REVIT
1002
{
1070
     1
1000
500026
1002
}
1002
{
1070
     5
1000
333213
1002
}
  0
LINE
  5
235
330
22D
100
AcDbEntity
  8
_ARDEX - WELDTEC_
100
AcDbLine
 10
255.7980057156809
 20
0.1047184170711139
 30
0.0
 11
255.7980057156809
 21
20.10471841707112
 31
0.0
1001
REVIT
1002
{
1070
     1
1000
500026
1002
}
1002
{
1070
     5
1000
333213
1002
}
  0
ARC
  5
236
330
22D
100
AcDbEntity
  8
_ARDEX - WELDTEC_
100
AcDbCircle
 10
264.796839942536
 20
8.615450092703692
 30
0.0
 40
3.599904939316393
100
AcDbArc
 50
128.7499156981656
 51
173.2500843018355
1001
REVIT
1002
{
1070
     1
1000
500026
1002
}
1002
{
1070
     5
1000
333213
1002
}
  0
LINE
  5
237
330
22D
100
AcDbEntity
  8
_ARDEX - WELDTEC_
100
AcDbLine
 10
261.2218872767082
 20
9.038568290379725
 30
0.0
 11
262.5435790742037
 21
9.771194016962342
 31
0.0
1001
REVIT
1002
{
1070
     1
1000
500026
1002
}
1002
{
1070
     5
1000
333213
1002
}
  0
LINE
  5
238
330
22D
100
AcDbEntity
  8
_ARDEX - WELDTEC_
100
AcDbLine
 10
262.5435790742037
 20
9.771194016962342
 30
0.0
 11
262.5435790742037
 21
11.42296341081213
 31
0.0
1001
REVIT
1002
{
1070
     1
1000
500026
1002
}
1002
{
1070
     5
1000
333213
1002
}
  0
LINE
  5
239
330
22D
100
AcDbEntity
  8
_ARDEX - WELDTEC_
100
AcDbLine
 10
266.135652517049
 20
10.80796424829059
 30
0.0
 11
266.9820044536196
 21
11.09938659061303
 31
0.0
1001
REVIT
1002
{
1070
     1
1000
500026
1002
}
1002
{
1070
     5
1000
333213
1002
}
  0
LINE
  5
23A
330
22D
100
AcDbEntity
  8
_ARDEX - WELDTEC_
100
AcDbLine
 10
266.9820044536196
 20
11.09938659061303
 30
0.0
 11
266.9820044536196
 21
13.91234101803237
 31
0.0
1001
REVIT
1002
{
1070
     1
1000
500026
1002
}
1002
{
1070
     5
1000
333213
1002
}
  0
LINE
  5
23B
330
22D
100
AcDbEntity
  8
_ARDEX - WELDTEC_
100
AcDbLine
 10
266.9820044536196
 20
13.91234101803237
 30
0.0
 11
266.135652517049
 21
13.5176806285152
 31
0.0
1001
REVIT
1002
{
1070
     1
1000
500026
1002
}
1002
{
1070
     5
1000
333213
1002
}
  0
LINE
  5
23C
330
22D
100
AcDbEntity
  8
_ARDEX - WELDTEC_
100
AcDbLine
 10
266.135652517049
 20
13.5176806285152
 30
0.0
 11
266.135652517049
 21
10.80796424829059
 31
0.0
1001
REVIT
1002
{
1070
     1
1000
500026
1002
}
1002
{
1070
     5
1000
333213
1002
}
  0
LINE
  5
23D
330
22D
100
AcDbEntity
  8
_ARDEX - WELDTEC_
100
AcDbLine
 10
270.5031651456994
 20
5.590266819067713
 30
0.0
 11
271.3408089774199
 21
5.590266819067713
 31
0.0
1001
REVIT
1002
{
1070
     1
1000
500026
1002
}
1002
{
1070
     5
1000
333213
1002
}
  0
LINE
  5
23E
330
22D
100
AcDbEntity
  8
_ARDEX - WELDTEC_
100
AcDbLine
 10
271.3408089774199
 20
5.590266819067713
 30
0.0
 11
271.3408089774199
 21
14.54487385665581
 31
0.0
1001
REVIT
1002
{
1070
     1
1000
500026
1002
}
1002
{
1070
     5
1000
333213
1002
}
  0
LINE
  5
23F
330
22D
100
AcDbEntity
  8
_ARDEX - WELDTEC_
100
AcDbLine
 10
271.3408089774199
 20
14.54487385665581
 30
0.0
 11
270.5031651456994
 21
14.54487385665581
 31
0.0
1001
REVIT
1002
{
1070
     1
1000
500026
1002
}
1002
{
1070
     5
1000
333213
1002
}
  0
LINE
  5
240
330
22D
100
AcDbEntity
  8
_ARDEX - WELDTEC_
100
AcDbLine
 10
270.5031651456994
 20
14.54487385665581
 30
0.0
 11
270.5031651456994
 21
5.590266819067713
 31
0.0
1001
REVIT
1002
{
1070
     1
1000
500026
1002
}
1002
{
1070
     5
1000
333213
1002
}
  0
MTEXT
  5
242
330
22D
100
AcDbEntity
  8
_ARDEX - WELDTEC_
100
AcDbMText
 10
95.1576274176504
 20
8.67341586252181
 30
0.0
 40
1.5
 41
13.275945
 46
0.0
 71
     1
 72
     1
  1
SHEET TITLE
  7
Swis721 Lt BT_1
 73
     2
 44
1.0
1001
REVIT
1002
{
1070
     1
1000
500026
1002
}
1002
{
1070
     5
1000
333213
1002
}
  0
MTEXT
  5
243
330
22D
100
AcDbEntity
  8
_ARDEX - WELDTEC_
100
AcDbMText
 10
220.3053465833535
 20
13.82166287222621
 30
0.0
 40
1.5
 41
9.95695875
 46
0.0
 71
     1
 72
     1
  1
DWG NO.
  7
Swis721 Lt BT_1
 73
     2
 44
1.0
1001
REVIT
1002
{
1070
     1
1000
500026
1002
}
1002
{
1070
     5
1000
333213
1002
}
  0
MTEXT
  5
244
330
22D
100
AcDbEntity
  8
_ARDEX - WELDTEC_
100
AcDbMText
 10
220.3053465833535
 20
3.82166287222594
 30
0.0
 40
1.5
 41
6.998731874999998
 46
0.0
 71
     1
 72
     1
  1
SCALE
  7
Swis721 Lt BT_1
 73
     2
 44
1.0
1001
REVIT
1002
{
1070
     1
1000
500026
1002
}
1002
{
1070
     5
1000
333213
1002
}
  0
MTEXT
  5
246
330
22D
100
AcDbEntity
  8
_ARDEX - WELDTEC_
100
AcDbMText
 10
239.0752451580743
 20
4.127661816395773
 30
0.0
 40
2.1
 41
8.730376874999999
 46
0.0
 71
     1
 72
     1
  1
@  A4
  7
Swis721 Lt BT_2
 73
     2
 44
1.0
1001
REVIT
1002
{
1070
     1
1000
500026
1002
}
1002
{
1070
     5
1000
333213
1002
}
  0
MTEXT
  5
247
330
22D
100
AcDbEntity
  8
_ARDEX - WELDTEC_
100
AcDbMText
 10
220.3053465833535
 20
7.734351438880705
 30
0.0
 40
1.5
 41
5.62784625
 46
0.0
 71
     1
 72
     1
  1
DATE
  7
Swis721 Lt BT_1
 73
     2
 44
1.0
1001
REVIT
1002
{
1070
     1
1000
500026
1002
}
1002
{
1070
     5
1000
333213
1002
}
  0
MTEXT
  5
249
330
22D
100
AcDbEntity
  8
_ARDEX - WELDTEC_
100
AcDbMText
 10
6.949872989435805
 20
8.938253401590928
 30
0.0
 40
0.7000000000000001
 41
6.6379725
 46
0.0
 71
     1
 72
     1
  1
Disclaimer: 
  7
Swis721 Lt BT_B
 73
     2
 44
1.0
1001
REVIT
1002
{
1070
     1
1000
500026
1002
}
1002
{
1070
     5
1000
333213
1002
}
  0
MTEXT
  5
24B
330
22D
100
AcDbEntity
  8
_ARDEX - WELDTEC_
100
AcDbMText
 10
12.4267479894358
 20
8.938253401590928
 30
0.0
 40
0.7000000000000001
 41
17.821513125
 46
0.0
 71
     1
 72
     1
  1
Ardex makes every reasonable effort
  7
Swis721 Lt BT_3
 73
     2
 44
1.0
1001
REVIT
1002
{
1070
     1
1000
500026
1002
}
1002
{
1070
     5
1000
333213
1002
}
  0
MTEXT
  5
24C
330
22D
100
AcDbEntity
  8
_ARDEX - WELDTEC_
100
AcDbMText
 10
27.13096673943581
 20
8.938253401590928
 30
0.0
 40
0.7000000000000001
 41
0.3607593750000011
 46
0.0
 71
     1
 72
     1
  1
\fSwis721 Lt BT|b1|i0|c0|p34|;\W.9; 
  7
Swis721 Lt BT_B
 73
     2
 44
1.0
1001
REVIT
1002
{
1070
     1
1000
500026
1002
}
1002
{
1070
     5
1000
333213
1002
}
  0
MTEXT
  5
24D
330
22D
100
AcDbEntity
  8
_ARDEX - WELDTEC_
100
AcDbMText
 10
27.42862298943581
 20
8.938253401590928
 30
0.0
 40
0.7000000000000001
 41
13.27594499999999
 46
0.0
 71
     1
 72
     1
  1
to ensure that the technical
  7
Swis721 Lt BT_3
 73
     2
 44
1.0
1001
REVIT
1002
{
1070
     1
1000
500026
1002
}
1002
{
1070
     5
1000
333213
1002
}
  0
MTEXT
  5
24E
330
22D
100
AcDbEntity
  8
_ARDEX - WELDTEC_
100
AcDbMText
 10
38.3823729894358
 20
8.938253401590928
 30
0.0
 40
0.7000000000000001
 41
0.3607593750000057
 46
0.0
 71
     1
 72
     1
  1
\fSwis721 Lt BT|b1|i0|c0|p34|;\W.9; 
  7
Swis721 Lt BT_B
 73
     2
 44
1.0
1001
REVIT
1002
{
1070
     1
1000
500026
1002
}
1002
{
1070
     5
1000
333213
1002
}
  0
MTEXT
  5
24F
330
22D
100
AcDbEntity
  8
_ARDEX - WELDTEC_
100
AcDbMText
 10
38.6800292394358
 20
8.938253401590928
 30
0.0
 40
0.7000000000000001
 41
59.95820812499999
 46
0.0
 71
     1
 72
     1
  1
details, recommendations and other information contained in this drawing are accurate and represent our knowledge and 
  7
Swis721 Lt BT_3
 73
     2
 44
1.0
1001
REVIT
1002
{
1070
     1
1000
500026
1002
}
1002
{
1070
     5
1000
333213
1002
}
  0
MTEXT
  5
250
330
22D
100
AcDbEntity
  8
_ARDEX - WELDTEC_
100
AcDbMText
 10
6.949872989435805
 20
7.681482568257595
 30
0.0
 40
0.7000000000000001
 41
98.920220625
 46
0.0
 71
     1
 72
     1
  1
experience at the time of design and publication. Ardex reserves the right to change the information without prior notice.  Ardex provides the information in good faith with no representations or warranties 
  7
Swis721 Lt BT_3
 73
     2
 44
1.0
1001
REVIT
1002
{
1070
     1
1000
500026
1002
}
1002
{
1070
     5
1000
333213
1002
}
  0
MTEXT
  5
251
330
22D
100
AcDbEntity
  8
_ARDEX - WELDTEC_
100
AcDbMText
 10
6.949872989435805
 20
6.424711734924262
 30
0.0
 40
0.7000000000000001
 41
100.1468025
 46
0.0
 71
     1
 72
     1
  1
(whether implied or otherwise), and will not be liable for any losses or damages (whether direct, indirect or consequential) whatsoever, whether in contract, negligence  or any other action, arising out of or in 
  7
Swis721 Lt BT_3
 73
     2
 44
1.0
1001
REVIT
1002
{
1070
     1
1000
500026
1002
}
1002
{
1070
     5
1000
333213
1002
}
  0
MTEXT
  5
252
330
22D
100
AcDbEntity
  8
_ARDEX - WELDTEC_
100
AcDbMText
 10
6.949872989435805
 20
5.167940901590927
 30
0.0
 40
0.7000000000000001
 41
29.221509375
 46
0.0
 71
     1
 72
     1
  1
connection with the use, or inability to use, the information.  
  7
Swis721 Lt BT_3
 73
     2
 44
1.0
1001
REVIT
1002
{
1070
     1
1000
500026
1002
}
1002
{
1070
     5
1000
333213
1002
}
  0
MTEXT
  5
253
330
22D
100
AcDbEntity
  8
_ARDEX - WELDTEC_
100
AcDbMText
 10
6.949872989435805
 20
3.911170068257595
 30
0.0
 40
0.7000000000000001
 41
100.1468025
 46
0.0
 71
     1
 72
     1
  1
It is your responsibility to ensure that our products are used only for the purposes for which they are intended and are used in accordance with any applicable specifications, guidelines, standards, codes of 
  7
Swis721 Lt BT_3
 73
     2
 44
1.0
1001
REVIT
1002
{
1070
     1
1000
500026
1002
}
1002
{
1070
     5
1000
333213
1002
}
  0
MTEXT
  5
254
330
22D
100
AcDbEntity
  8
_ARDEX - WELDTEC_
100
AcDbMText
 10
6.949872989435805
 20
2.654399234924261
 30
0.0
 40
0.7000000000000001
 41
79.94427750000001
 46
0.0
 71
     1
 72
     1
  1
practice, regulations and laws. The supply of our products and services are also subject to certain terms, warranties and exclusions which are available on request.
  7
Swis721 Lt BT_3
 73
     2
 44
1.0
1001
REVIT
1002
{
1070
     1
1000
500026
1002
}
1002
{
1070
     5
1000
333213
1002
}
  0
INSERT
  5
255
330
22D
100
AcDbEntity
  8
0
100
AcDbBlockReference
  2
_ARDEX_ Landscape Title block - ARDEX Logo_dwg-603482-PLANT EQUIPMENT SUPPORTS
 10
256.0461168367232
 20
-0.0315620231414024
 30
0.0
 41
0.0001013127763658
 42
0.0001013127763658
 43
0.0001013127763658
  0
ENDBLK
  5
257
330
22D
100
AcDbEntity
  8
0
100
AcDbBlockEnd
  0
ENDSEC
  0
SECTION
  2
ENTITIES
  0
LINE
  5
BF
330
70
100
AcDbEntity
  8
_ARDEX - BUTYNOL_
100
AcDbLine
 10
3507.398353252375
 20
2329.85067900355
 30
0.0
 11
3584.869813487612
 21
2329.85067900355
 31
0.0
1001
REVIT
1002
{
1070
     1
1000
519617
1002
}
1002
{
1070
     2
1000
-2000051
1002
}
1002
{
1070
     3
1000
330678
1002
}
  0
LINE
  5
C0
330
70
100
AcDbEntity
  8
_ARDEX - BUTYNOL_
100
AcDbLine
 10
3629.869813487913
 20
2329.850679003549
 30
0.0
 11
3674.898353252523
 21
2329.850679003549
 31
0.0
1001
REVIT
1002
{
1070
     1
1000
519617
1002
}
1002
{
1070
     2
1000
-2000051
1002
}
1002
{
1070
     3
1000
330678
1002
}
  0
LINE
  5
C1
330
70
100
AcDbEntity
  8
_ARDEX - BUTYNOL_
100
AcDbLine
 10
3719.898353252824
 20
2329.850679003549
 30
0.0
 11
3822.398353252376
 21
2329.850679003548
 31
0.0
1001
REVIT
1002
{
1070
     1
1000
519617
1002
}
1002
{
1070
     2
1000
-2000051
1002
}
1002
{
1070
     3
1000
330678
1002
}
  0
INSERT
  5
C7
330
70
100
AcDbEntity
  8
_ARDEX - WELDTEC_
100
AcDbBlockReference
  2
_ARDEX_ Lines - Barrier-604404-AB-19 PLANT EQUIPMENT SUPPORTS
 10
3592.131154581679
 20
2481.636918600988
 30
0.0
1001
REVIT
1002
{
1070
     1
1000
519623
1002
}
1002
{
1070
     5
1000
569184
1002
}
1002
{
1070
     2
1000
-2002000
1002
}
  0
INSERT
  5
D0
330
70
100
AcDbEntity
  8
_ARDEX - WELDTEC_
 62
   156
420
    16512
100
AcDbBlockReference
  2
_ARDEX_ Framing - Framing-540347-AB-19 PLANT EQUIPMENT SUPPORTS
 10
3509.298380121331
 20
2438.85067900355
 30
0.0
1001
REVIT
1002
{
1070
     1
1000
519618
1002
}
1002
{
1070
     5
1000
489751
1002
}
1002
{
1070
     2
1000
-2002000
1002
}
  0
INSERT
  5
D1
330
70
100
AcDbEntity
  8
_ARDEX - WELDTEC_
 62
   156
420
    16512
100
AcDbBlockReference
  2
_ARDEX_ Framing - Framing-540347-AB-19 PLANT EQUIPMENT SUPPORTS
 10
3599.326919886241
 20
2438.850679003549
 30
0.0
1001
REVIT
1002
{
1070
     1
1000
519621
1002
}
1002
{
1070
     5
1000
489751
1002
}
1002
{
1070
     2
1000
-2002000
1002
}
  0
INSERT
  5
D9
330
70
100
AcDbEntity
  8
_ARDEX - WELDTEC_
100
AcDbBlockReference
  2
_ARDEX_ Lining - Various - Plinth-541498-AB-19 PLANT EQUIPMENT SUPPORTS
 10
3593.869813487611
 20
2483.511918600988
 30
0.0
1001
REVIT
1002
{
1070
     1
1000
519718
1002
}
1002
{
1070
     5
1000
514056
1002
}
1002
{
1070
     2
1000
-2002000
1002
}
  0
INSERT
  5
DE
330
70
100
AcDbEntity
  8
_ARDEX - WELDTEC_
100
AcDbBlockReference
  2
_ARDEX_ Lines - Membrane-595221-AB-19 PLANT EQUIPMENT SUPPORTS
 10
3591.369813487612
 20
2526.011918600989
 30
0.0
1001
REVIT
1002
{
1070
     1
1000
519929
1002
}
1002
{
1070
     5
1000
569180
1002
}
1002
{
1070
     2
1000
-2002000
1002
}
  0
INSERT
  5
EF
330
70
100
AcDbEntity
  8
_ARDEX - WELDTEC_
100
AcDbBlockReference
  2
_ARDEX_ Lining - Various - Polyiso Board 35MM-594682-AB-19 PLANT EQUIPMENT SUPPORTS
 10
3590.334279581677
 20
2447.761918600989
 30
0.0
 50
180.0
1001
REVIT
1002
{
1070
     1
1000
594331
1002
}
1002
{
1070
     5
1000
569182
1002
}
1002
{
1070
     2
1000
-2002000
1002
}
  0
INSERT
  5
F6
330
70
100
AcDbEntity
  8
_ARDEX - WELDTEC_
100
AcDbBlockReference
  2
_ARDEX_ Lining - Various - Substrate-594895-AB-19 PLANT EQUIPMENT SUPPORTS
 10
3859.43388715876
 20
2424.850679003551
 30
0.0
 50
180.0
1001
REVIT
1002
{
1070
     1
1000
594838
1002
}
1002
{
1070
     5
1000
569186
1002
}
1002
{
1070
     2
1000
-2002000
1002
}
  0
INSERT
  5
107
330
70
100
AcDbEntity
  8
_ARDEX - WELDTEC_
100
AcDbBlockReference
  2
_ARDEX_ Lining - Various - Polyiso Board 35MM-594999-AB-19 PLANT EQUIPMENT SUPPORTS
 10
3714.433887158757
 20
2447.761918600989
 30
0.0
1001
REVIT
1002
{
1070
     1
1000
594996
1002
}
1002
{
1070
     5
1000
569182
1002
}
1002
{
1070
     2
1000
-2002000
1002
}
  0
INSERT
  5
113
330
70
100
AcDbEntity
  8
_ARDEX - WELDTEC_
 62
   156
420
    16512
100
AcDbBlockReference
  2
_ARDEX_ Framing - Framing-595214-AB-19 PLANT EQUIPMENT SUPPORTS
 10
3601.898353252823
 20
2367.279245637269
 30
0.0
 50
89.99999999999991
1001
REVIT
1002
{
1070
     1
1000
595039
1002
}
1002
{
1070
     5
1000
489751
1002
}
1002
{
1070
     2
1000
-2002000
1002
}
  0
LINE
  5
114
330
70
100
AcDbEntity
  8
_ARDEX - BUTYNOL_
  6
Centre
 62
     7
100
AcDbLine
 10
3652.384083370217
 20
2607.761918600988
 30
0.0
 11
3652.384083370216
 21
2322.761918600988
 31
0.0
1001
REVIT
1002
{
1070
     1
1000
519628
1002
}
1002
{
1070
     2
1000
-2000051
1002
}
1002
{
1070
     3
1000
-2000288
1002
}
  0
INSERT
  5
119
330
70
100
AcDbEntity
  8
_ARDEX - WELDTEC_
100
AcDbBlockReference
  2
_ARDEX_ Lines - Membrane-604723-AB-19 PLANT EQUIPMENT SUPPORTS
 10
3591.369813487612
 20
2526.011918600989
 30
0.0
 50
270.0
1001
REVIT
1002
{
1070
     1
1000
519812
1002
}
1002
{
1070
     5
1000
569180
1002
}
1002
{
1070
     2
1000
-2002000
1002
}
  0
INSERT
  5
11E
330
70
100
AcDbEntity
  8
_ARDEX - WELDTEC_
100
AcDbBlockReference
  2
_ARDEX_ Lines - Membrane-604724-AB-19 PLANT EQUIPMENT SUPPORTS
 10
3713.398353252824
 20
2526.011918600988
 30
0.0
 50
270.0
1001
REVIT
1002
{
1070
     1
1000
519940
1002
}
1002
{
1070
     5
1000
569180
1002
}
1002
{
1070
     2
1000
-2002000
1002
}
  0
INSERT
  5
149
330
70
100
AcDbEntity
  8
_ARDEX - WELDTEC_
100
AcDbBlockReference
  2
_ARDEX_ Fixing 2 - _ARDEX_ Fixing 2-604725-AB-19 PLANT EQUIPMENT SUPPORTS
 10
3608.9190978801
 20
2518.628854628823
 30
0.0
 50
180.0
1001
REVIT
1002
{
1070
     1
1000
550659
1002
}
1002
{
1070
     5
1000
515708
1002
}
1002
{
1070
     2
1000
-2002000
1002
}
  0
INSERT
  5
174
330
70
100
AcDbEntity
  8
_ARDEX - WELDTEC_
100
AcDbBlockReference
  2
_ARDEX_ Fixing 2 - _ARDEX_ Fixing 2-604492-AB-19 PLANT EQUIPMENT SUPPORTS
 10
3697.099068860335
 20
2518.628854628823
 30
0.0
1001
REVIT
1002
{
1070
     1
1000
550947
1002
}
1002
{
1070
     5
1000
515708
1002
}
1002
{
1070
     2
1000
-2002000
1002
}
  0
INSERT
  5
179
330
70
100
AcDbEntity
  8
_ARDEX - WELDTEC_
100
AcDbBlockReference
  2
_ARDEX_ Lines - Barrier-604440-AB-19 PLANT EQUIPMENT SUPPORTS
 10
3592.131154581679
 20
2481.636918600988
 30
0.0
 50
270.0
1001
REVIT
1002
{
1070
     1
1000
594511
1002
}
1002
{
1070
     5
1000
569184
1002
}
1002
{
1070
     2
1000
-2002000
1002
}
  0
INSERT
  5
17E
330
70
100
AcDbEntity
  8
_ARDEX - WELDTEC_
100
AcDbBlockReference
  2
_ARDEX_ Lines - Barrier-604392-AB-19 PLANT EQUIPMENT SUPPORTS
 10
3592.131154581679
 20
2445.249661811818
 30
0.0
 50
180.0
1001
REVIT
1002
{
1070
     1
1000
594621
1002
}
1002
{
1070
     5
1000
569184
1002
}
1002
{
1070
     2
1000
-2002000
1002
}
  0
INSERT
  5
183
330
70
100
AcDbEntity
  8
_ARDEX - WELDTEC_
100
AcDbBlockReference
  2
_ARDEX_ Lines - Barrier-604441-AB-19 PLANT EQUIPMENT SUPPORTS
 10
3712.715137158755
 20
2481.636918600988
 30
0.0
 50
270.0
1001
REVIT
1002
{
1070
     1
1000
594997
1002
}
1002
{
1070
     5
1000
569184
1002
}
1002
{
1070
     2
1000
-2002000
1002
}
  0
INSERT
  5
188
330
70
100
AcDbEntity
  8
_ARDEX - WELDTEC_
100
AcDbBlockReference
  2
_ARDEX_ Lines - Barrier-604403-AB-19 PLANT EQUIPMENT SUPPORTS
 10
3712.715137158755
 20
2445.249661811818
 30
0.0
1001
REVIT
1002
{
1070
     1
1000
594998
1002
}
1002
{
1070
     5
1000
569184
1002
}
1002
{
1070
     2
1000
-2002000
1002
}
  0
INSERT
  5
18D
330
70
100
AcDbEntity
  8
_ARDEX - WELDTEC_
100
AcDbBlockReference
  2
_ARDEX_ Lines - Membrane-595332-AB-19 PLANT EQUIPMENT SUPPORTS
 10
3591.369813487612
 20
2483.707986412853
 30
0.0
 50
180.0
1001
REVIT
1002
{
1070
     1
1000
595331
1002
}
1002
{
1070
     5
1000
569180
1002
}
1002
{
1070
     2
1000
-2002000
1002
}
  0
INSERT
  5
18E
330
70
100
AcDbEntity
  8
_ARDEX - WELDTEC_
100
AcDbBlockReference
  2
_ARDEX_ Lines - Membrane-595332-AB-19 PLANT EQUIPMENT SUPPORTS
 10
3713.398353252824
 20
2483.082986412853
 30
0.0
1001
REVIT
1002
{
1070
     1
1000
595431
1002
}
1002
{
1070
     5
1000
569180
1002
}
1002
{
1070
     2
1000
-2002000
1002
}
  0
LINE
  5
18F
330
70
100
AcDbEntity
  8
_ARDEX - BUTYNOL_
 62
     7
370
    18
100
AcDbLine
 10
3600.682775033505
 20
2523.511918600988
 30
0.0
 11
3600.682775033505
 21
2518.628854628823
 31
0.0
1001
REVIT
1002
{
1070
     1
1000
604456
1002
}
1002
{
1070
     2
1000
-2000051
1002
}
1002
{
1070
     3
1000
330670
1002
}
  0
LINE
  5
190
330
70
100
AcDbEntity
  8
_ARDEX - BUTYNOL_
 62
     7
370
    18
100
AcDbLine
 10
3600.682775033505
 20
2518.628854628823
 30
0.0
 11
3617.155420726695
 21
2518.628854628823
 31
0.0
1001
REVIT
1002
{
1070
     1
1000
604457
1002
}
1002
{
1070
     2
1000
-2000051
1002
}
1002
{
1070
     3
1000
330670
1002
}
  0
LINE
  5
191
330
70
100
AcDbEntity
  8
_ARDEX - BUTYNOL_
 62
     7
370
    18
100
AcDbLine
 10
3617.155420726695
 20
2523.511918600988
 30
0.0
 11
3617.155420726695
 21
2518.628854628823
 31
0.0
1001
REVIT
1002
{
1070
     1
1000
604458
1002
}
1002
{
1070
     2
1000
-2000051
1002
}
1002
{
1070
     3
1000
330670
1002
}
  0
LINE
  5
192
330
70
100
AcDbEntity
  8
_ARDEX - BUTYNOL_
 62
     7
370
    18
100
AcDbLine
 10
3688.86274601374
 20
2523.511918600988
 30
0.0
 11
3688.86274601374
 21
2518.628854628823
 31
0.0
1001
REVIT
1002
{
1070
     1
1000
604459
1002
}
1002
{
1070
     2
1000
-2000051
1002
}
1002
{
1070
     3
1000
330670
1002
}
  0
LINE
  5
193
330
70
100
AcDbEntity
  8
_ARDEX - BUTYNOL_
 62
     7
370
    18
100
AcDbLine
 10
3688.86274601374
 20
2518.628854628823
 30
0.0
 11
3705.33539170693
 21
2518.628854628823
 31
0.0
1001
REVIT
1002
{
1070
     1
1000
604460
1002
}
1002
{
1070
     2
1000
-2000051
1002
}
1002
{
1070
     3
1000
330670
1002
}
  0
LINE
  5
194
330
70
100
AcDbEntity
  8
_ARDEX - BUTYNOL_
 62
     7
370
    18
100
AcDbLine
 10
3705.33539170693
 20
2523.511918600988
 30
0.0
 11
3705.33539170693
 21
2518.628854628823
 31
0.0
1001
REVIT
1002
{
1070
     1
1000
604461
1002
}
1002
{
1070
     2
1000
-2000051
1002
}
1002
{
1070
     3
1000
330670
1002
}
  0
INSERT
  5
1A2
330
70
100
AcDbEntity
  8
_ARDEX - WELDTEC_
100
AcDbBlockReference
  2
Fix - Nail - Nail-611824-AB-19 PLANT EQUIPMENT SUPPORTS
 10
3618.405420726695
 20
2479.761918601288
 30
0.0
 50
270.0
1001
REVIT
1002
{
1070
     1
1000
611803
1002
}
1002
{
1070
     5
1000
611702
1002
}
1002
{
1070
     2
1000
-2002000
1002
}
  0
INSERT
  5
1A3
330
70
100
AcDbEntity
  8
_ARDEX - WELDTEC_
100
AcDbBlockReference
  2
Fix - Nail - Nail-611824-AB-19 PLANT EQUIPMENT SUPPORTS
 10
3687.612746013741
 20
2479.761918601288
 30
0.0
 50
270.0
1001
REVIT
1002
{
1070
     1
1000
611860
1002
}
1002
{
1070
     5
1000
611702
1002
}
1002
{
1070
     2
1000
-2002000
1002
}
  0
CIRCLE
  5
1A4
330
70
100
AcDbEntity
  8
_ARDEX - WELDTEC_
100
AcDbCircle
 10
3704.013310128284
 20
2513.10264077746
 30
0.0
 40
1.500000000000127
1001
REVIT
1002
{
1070
     1
1000
519957
1002
}
1002
{
1070
     5
1000
372253
1002
}
1002
{
1070
     2
1000
-2005022
1002
}
  0
HATCH
  5
1A5
330
70
100
AcDbEntity
  8
_ARDEX - WELDTEC_
100
AcDbHatch
 10
0.0
 20
0.0
 30
0.0
210
0.0
220
0.0
230
1.0
  2
SOLID
 70
     1
 71
     0
 91
        1
 92
        1
 93
        1
 72
     2
 10
3704.013310128284
 20
2513.10264077746
 40
1.500000000000127
 50
0.0
 51
360.0
 73
     1
 97
        0
 75
     0
 76
     1
 98
        1
 10
0.0
 20
0.0
450
        0
451
        0
460
0.0
461
0.0
452
        0
462
0.0
453
        0
470

1001
REVIT
1002
{
1070
     1
1000
519957
1002
}
1002
{
1070
     5
1000
372253
1002
}
1002
{
1070
     2
1000
-2005022
1002
}
  0
LINE
  5
1A6
330
70
100
AcDbEntity
  8
_ARDEX - WELDTEC_
100
AcDbLine
 10
3736.420069195111
 20
2528.117306863164
 30
0.0
 11
3744.844864381121
 21
2528.117306863164
 31
0.0
1001
REVIT
1002
{
1070
     1
1000
519957
1002
}
1002
{
1070
     5
1000
372253
1002
}
1002
{
1070
     2
1000
-2005022
1002
}
  0
LINE
  5
1A7
330
70
100
AcDbEntity
  8
_ARDEX - WELDTEC_
100
AcDbLine
 10
3704.013310128284
 20
2513.10264077746
 30
0.0
 11
3736.420069195111
 21
2528.117306863164
 31
0.0
1001
REVIT
1002
{
1070
     1
1000
519957
1002
}
1002
{
1070
     5
1000
372253
1002
}
1002
{
1070
     2
1000
-2005022
1002
}
  0
MTEXT
  5
1A9
330
70
100
AcDbEntity
  8
_ARDEX - WELDTEC_
100
AcDbMText
 10
3748.888423450334
 20
2530.073348529831
 30
0.0
 40
4.0
 41
22.6075875
 46
0.0
 71
     1
 72
     1
  1
PLINTH
  7
Swis721 Lt BT
 73
     2
 44
1.0
1001
REVIT
1002
{
1070
     1
1000
519957
1002
}
1002
{
1070
     5
1000
372253
1002
}
1002
{
1070
     2
1000
-2005022
1002
}
  0
CIRCLE
  5
1AA
330
70
100
AcDbEntity
  8
_ARDEX - WELDTEC_
100
AcDbCircle
 10
3697.947864551827
 20
2523.442357759618
 30
0.0
 40
1.500000000000181
1001
REVIT
1002
{
1070
     1
1000
551274
1002
}
1002
{
1070
     5
1000
372261
1002
}
1002
{
1070
     2
1000
-2005022
1002
}
  0
HATCH
  5
1AB
330
70
100
AcDbEntity
  8
_ARDEX - WELDTEC_
100
AcDbHatch
 10
0.0
 20
0.0
 30
0.0
210
0.0
220
0.0
230
1.0
  2
SOLID
 70
     1
 71
     0
 91
        1
 92
        1
 93
        1
 72
     2
 10
3697.947864551827
 20
2523.442357759618
 40
1.500000000000181
 50
0.0
 51
360.0
 73
     1
 97
        0
 75
     0
 76
     1
 98
        1
 10
0.0
 20
0.0
450
        0
451
        0
460
0.0
461
0.0
452
        0
462
0.0
453
        0
470

1001
REVIT
1002
{
1070
     1
1000
551274
1002
}
1002
{
1070
     5
1000
372261
1002
}
1002
{
1070
     2
1000
-2005022
1002
}
  0
LINE
  5
1AC
330
70
100
AcDbEntity
  8
_ARDEX - WELDTEC_
100
AcDbLine
 10
3741.258006110302
 20
2539.809579033303
 30
0.0
 11
3749.844864381123
 21
2539.809579033303
 31
0.0
1001
REVIT
1002
{
1070
     1
1000
551274
1002
}
1002
{
1070
     5
1000
372261
1002
}
1002
{
1070
     2
1000
-2005022
1002
}
  0
LINE
  5
1AD
330
70
100
AcDbEntity
  8
_ARDEX - WELDTEC_
100
AcDbLine
 10
3697.947864551827
 20
2523.442357759618
 30
0.0
 11
3741.258006110302
 21
2539.809579033303
 31
0.0
1001
REVIT
1002
{
1070
     1
1000
551274
1002
}
1002
{
1070
     5
1000
372261
1002
}
1002
{
1070
     2
1000
-2005022
1002
}
  0
MTEXT
  5
1AE
330
70
100
AcDbEntity
  8
_ARDEX - WELDTEC_
100
AcDbMText
 10
3753.888423450335
 20
2541.765620699969
 30
0.0
 40
4.0
 41
68.94512499999999
 46
0.0
 71
     1
 72
     1
  1
SCREWED TOP PLATE
  7
Swis721 Lt BT
 73
     2
 44
1.0
1001
REVIT
1002
{
1070
     1
1000
551274
1002
}
1002
{
1070
     5
1000
372261
1002
}
1002
{
1070
     2
1000
-2005022
1002
}
  0
CIRCLE
  5
1AF
330
70
100
AcDbEntity
  8
_ARDEX - WELDTEC_
100
AcDbCircle
 10
3677.711860906625
 20
2527.356592847892
 30
0.0
 40
1.500000000000281
1001
REVIT
1002
{
1070
     1
1000
595482
1002
}
1002
{
1070
     5
1000
372253
1002
}
1002
{
1070
     2
1000
-2005022
1002
}
  0
HATCH
  5
1B0
330
70
100
AcDbEntity
  8
_ARDEX - WELDTEC_
100
AcDbHatch
 10
0.0
 20
0.0
 30
0.0
210
0.0
220
0.0
230
1.0
  2
SOLID
 70
     1
 71
     0
 91
        1
 92
        1
 93
        1
 72
     2
 10
3677.711860906625
 20
2527.356592847892
 40
1.500000000000281
 50
0.0
 51
360.0
 73
     1
 97
        0
 75
     0
 76
     1
 98
        1
 10
0.0
 20
0.0
450
        0
451
        0
460
0.0
461
0.0
452
        0
462
0.0
453
        0
470

1001
REVIT
1002
{
1070
     1
1000
595482
1002
}
1002
{
1070
     5
1000
372253
1002
}
1002
{
1070
     2
1000
-2005022
1002
}
  0
LINE
  5
1B1
330
70
100
AcDbEntity
  8
_ARDEX - WELDTEC_
100
AcDbLine
 10
3736.420069195111
 20
2563.818869785313
 30
0.0
 11
3744.844864381121
 21
2563.808869785313
 31
0.0
1001
REVIT
1002
{
1070
     1
1000
595482
1002
}
1002
{
1070
     5
1000
372253
1002
}
1002
{
1070
     2
1000
-2005022
1002
}
  0
LINE
  5
1B2
330
70
100
AcDbEntity
  8
_ARDEX - WELDTEC_
100
AcDbLine
 10
3677.711860906625
 20
2527.356592847892
 30
0.0
 11
3736.420069195111
 21
2563.818869785313
 31
0.0
1001
REVIT
1002
{
1070
     1
1000
595482
1002
}
1002
{
1070
     5
1000
372253
1002
}
1002
{
1070
     2
1000
-2005022
1002
}
  0
MTEXT
  5
1B3
330
70
100
AcDbEntity
  8
_ARDEX - WELDTEC_
100
AcDbMText
 10
3748.888423450334
 20
2565.76491145198
 30
0.0
 40
4.0
 41
60.92825
 46
0.0
 71
     1
 72
     1
  1
ARDEX MEMBRANE
  7
Swis721 Lt BT
 73
     2
 44
1.0
1001
REVIT
1002
{
1070
     1
1000
595482
1002
}
1002
{
1070
     5
1000
372253
1002
}
1002
{
1070
     2
1000
-2005022
1002
}
  0
CIRCLE
  5
1B4
330
70
100
AcDbEntity
  8
_ARDEX - WELDTEC_
100
AcDbCircle
 10
3549.308718651307
 20
2484.815017384121
 30
0.0
 40
1.5
1001
REVIT
1002
{
1070
     1
1000
595488
1002
}
1002
{
1070
     5
1000
372253
1002
}
1002
{
1070
     2
1000
-2005022
1002
}
  0
HATCH
  5
1B5
330
70
100
AcDbEntity
  8
_ARDEX - WELDTEC_
100
AcDbHatch
 10
0.0
 20
0.0
 30
0.0
210
0.0
220
0.0
230
1.0
  2
SOLID
 70
     1
 71
     0
 91
        1
 92
        1
 93
        1
 72
     2
 10
3549.308718651307
 20
2484.815017384121
 40
1.5
 50
0.0
 51
360.0
 73
     1
 97
        0
 75
     0
 76
     1
 98
        1
 10
0.0
 20
0.0
450
        0
451
        0
460
0.0
461
0.0
452
        0
462
0.0
453
        0
470

1001
REVIT
1002
{
1070
     1
1000
595488
1002
}
1002
{
1070
     5
1000
372253
1002
}
1002
{
1070
     2
1000
-2005022
1002
}
  0
LINE
  5
1B6
330
70
100
AcDbEntity
  8
_ARDEX - WELDTEC_
100
AcDbLine
 10
3549.308718651307
 20
2515.690565234674
 30
0.0
 11
3526.759161232364
 21
2515.690565234674
 31
0.0
1001
REVIT
1002
{
1070
     1
1000
595488
1002
}
1002
{
1070
     5
1000
372253
1002
}
1002
{
1070
     2
1000
-2005022
1002
}
  0
LINE
  5
1B7
330
70
100
AcDbEntity
  8
_ARDEX - WELDTEC_
100
AcDbLine
 10
3549.308718651307
 20
2484.815017384121
 30
0.0
 11
3549.308718651307
 21
2515.690565234674
 31
0.0
1001
REVIT
1002
{
1070
     1
1000
595488
1002
}
1002
{
1070
     5
1000
372253
1002
}
1002
{
1070
     2
1000
-2005022
1002
}
  0
MTEXT
  5
1B8
330
70
100
AcDbEntity
  8
_ARDEX - WELDTEC_
100
AcDbMText
 10
3476.359161232364
 20
2517.646606901341
 30
0.0
 40
4.0
 41
60.92825
 46
0.0
 71
     1
 72
     1
  1
ARDEX MEMBRANE
  7
Swis721 Lt BT
 73
     2
 44
1.0
1001
REVIT
1002
{
1070
     1
1000
595488
1002
}
1002
{
1070
     5
1000
372253
1002
}
1002
{
1070
     2
1000
-2005022
1002
}
  0
MTEXT
  5
1B9
330
70
100
AcDbEntity
  8
_ARDEX - WELDTEC_
100
AcDbMText
 10
3487.186211852514
 20
2465.717960267653
 30
0.0
 40
4.0
 41
76.32065
 46
0.0
 71
     1
 72
     1
  1
ARDEX POLYISO BOARD
  7
Swis721 Lt BT
 73
     2
 44
1.0
1001
REVIT
1002
{
1070
     1
1000
595497
1002
}
1002
{
1070
     5
1000
372253
1002
}
1002
{
1070
     2
1000
-2005022
1002
}
  0
MTEXT
  5
1BA
330
70
100
AcDbEntity
  8
_ARDEX - WELDTEC_
100
AcDbMText
 10
3760.810814229383
 20
2465.717960267653
 30
0.0
 40
4.0
 41
76.32065
 46
0.0
 71
     1
 72
     1
  1
ARDEX POLYISO BOARD
  7
Swis721 Lt BT
 73
     2
 44
1.0
1001
REVIT
1002
{
1070
     1
1000
595503
1002
}
1002
{
1070
     5
1000
372253
1002
}
1002
{
1070
     2
1000
-2005022
1002
}
  0
MTEXT
  5
1BB
330
70
100
AcDbEntity
  8
_ARDEX - WELDTEC_
100
AcDbMText
 10
3485.879161232364
 20
2435.806720670217
 30
0.0
 40
4.0
 41
37.83965
 46
0.0
 71
     1
 72
     1
  1
SUBSTRATE
  7
Swis721 Lt BT
 73
     2
 44
1.0
1001
REVIT
1002
{
1070
     1
1000
595505
1002
}
1002
{
1070
     5
1000
372253
1002
}
1002
{
1070
     2
1000
-2005022
1002
}
  0
CIRCLE
  5
1BC
330
70
100
AcDbEntity
  8
_ARDEX - WELDTEC_
100
AcDbCircle
 10
3643.03185719296
 20
2482.091689882027
 30
0.0
 40
1.500000000000089
1001
REVIT
1002
{
1070
     1
1000
595520
1002
}
1002
{
1070
     5
1000
372253
1002
}
1002
{
1070
     2
1000
-2005022
1002
}
  0
HATCH
  5
1BD
330
70
100
AcDbEntity
  8
_ARDEX - WELDTEC_
100
AcDbHatch
 10
0.0
 20
0.0
 30
0.0
210
0.0
220
0.0
230
1.0
  2
SOLID
 70
     1
 71
     0
 91
        1
 92
        1
 93
        1
 72
     2
 10
3643.03185719296
 20
2482.091689882027
 40
1.500000000000089
 50
0.0
 51
360.0
 73
     1
 97
        0
 75
     0
 76
     1
 98
        1
 10
0.0
 20
0.0
450
        0
451
        0
460
0.0
461
0.0
452
        0
462
0.0
453
        0
470

1001
REVIT
1002
{
1070
     1
1000
595520
1002
}
1002
{
1070
     5
1000
372253
1002
}
1002
{
1070
     2
1000
-2005022
1002
}
  0
LINE
  5
1BE
330
70
100
AcDbEntity
  8
_ARDEX - WELDTEC_
100
AcDbLine
 10
3571.303966266477
 20
2528.553675109098
 30
0.0
 11
3542.973564041718
 21
2528.553675109098
 31
0.0
1001
REVIT
1002
{
1070
     1
1000
595520
1002
}
1002
{
1070
     5
1000
372253
1002
}
1002
{
1070
     2
1000
-2005022
1002
}
  0
LINE
  5
1BF
330
70
100
AcDbEntity
  8
_ARDEX - WELDTEC_
100
AcDbLine
 10
3643.03185719296
 20
2482.091689882027
 30
0.0
 11
3571.303966266477
 21
2528.553675109098
 31
0.0
1001
REVIT
1002
{
1070
     1
1000
595520
1002
}
1002
{
1070
     5
1000
372253
1002
}
1002
{
1070
     2
1000
-2005022
1002
}
  0
CIRCLE
  5
1C0
330
70
100
AcDbEntity
  8
_ARDEX - WELDTEC_
100
AcDbCircle
 10
3571.303966266477
 20
2445.923335286883
 30
0.0
 40
1.5
1001
REVIT
1002
{
1070
     1
1000
595520
1002
}
1002
{
1070
     5
1000
372253
1002
}
1002
{
1070
     2
1000
-2005022
1002
}
  0
HATCH
  5
1C1
330
70
100
AcDbEntity
  8
_ARDEX - WELDTEC_
100
AcDbHatch
 10
0.0
 20
0.0
 30
0.0
210
0.0
220
0.0
230
1.0
  2
SOLID
 70
     1
 71
     0
 91
        1
 92
        1
 93
        1
 72
     2
 10
3571.303966266477
 20
2445.923335286883
 40
1.5
 50
0.0
 51
360.0
 73
     1
 97
        0
 75
     0
 76
     1
 98
        1
 10
0.0
 20
0.0
450
        0
451
        0
460
0.0
461
0.0
452
        0
462
0.0
453
        0
470

1001
REVIT
1002
{
1070
     1
1000
595520
1002
}
1002
{
1070
     5
1000
372253
1002
}
1002
{
1070
     2
1000
-2005022
1002
}
  0
LINE
  5
1C2
330
70
100
AcDbEntity
  8
_ARDEX - WELDTEC_
100
AcDbLine
 10
3571.303966266477
 20
2528.553675109098
 30
0.0
 11
3542.973564041718
 21
2528.553675109098
 31
0.0
1001
REVIT
1002
{
1070
     1
1000
595520
1002
}
1002
{
1070
     5
1000
372253
1002
}
1002
{
1070
     2
1000
-2005022
1002
}
  0
LINE
  5
1C3
330
70
100
AcDbEntity
  8
_ARDEX - WELDTEC_
100
AcDbLine
 10
3571.303966266477
 20
2445.923335286883
 30
0.0
 11
3571.303966266477
 21
2528.553675109098
 31
0.0
1001
REVIT
1002
{
1070
     1
1000
595520
1002
}
1002
{
1070
     5
1000
372253
1002
}
1002
{
1070
     2
1000
-2005022
1002
}
  0
MTEXT
  5
1C4
330
70
100
AcDbEntity
  8
_ARDEX - WELDTEC_
100
AcDbMText
 10
3476.953564041718
 20
2530.509716775764
 30
0.0
 40
4.0
 41
79.84807499999999
 46
0.0
 71
     1
 72
     1
  1
ARDEX VAPOUR BARRIER
  7
Swis721 Lt BT
 73
     2
 44
1.0
1001
REVIT
1002
{
1070
     1
1000
595520
1002
}
1002
{
1070
     5
1000
372253
1002
}
1002
{
1070
     2
1000
-2005022
1002
}
  0
VIEWPORT
  5
1C5
330
6C
100
AcDbEntity
 67
     1
  8
_ARDEX - WELDTEC_
100
AcDbViewport
 10
145.3206824895835
 20
98.90472072059221
 30
0.0
 40
283.0000115076765
 41
200.6000046070426
 68
    -1
 69
     2
 12
3652.384083370216
 22
2446.357793104156
 13
0.0
 23
0.0
 14
0.0
 24
0.0
 15
0.0
 25
0.0
 16
0.0
 26
0.0
 36
1.0
 17
0.0
 27
0.0
 37
0.0
 42
0.0
 43
0.0
 44
0.0
 45
401.2000092140852
 50
0.0
 51
0.0
 72
  1000
 90
    32768
  1

281
     0
 71
     1
 74
     1
110
0.0
120
0.0
130
0.0
111
1.0
121
0.0
131
0.0
112
0.0
122
1.0
132
0.0
 79
     0
146
0.0
170
     0
 61
     5
292
     1
282
     1
141
0.0
142
0.0
 63
   250
421
  3355443
  0
VIEWPORT
  5
1C7
330
6C
100
AcDbEntity
 67
     1
  8
0
100
AcDbViewport
 10
6.0
 20
4.5
 30
0.0
 40
12.0
 41
9.0
 68
    -1
 69
     1
 12
6.0
 22
4.5
 13
0.0
 23
0.0
 14
0.0
 24
0.0
 15
0.0
 25
0.0
 16
0.0
 26
0.0
 36
1.0
 17
0.0
 27
0.0
 37
0.0
 42
50.0
 43
0.0
 44
0.0
 45
12.0
 50
0.0
 51
0.0
 72
   100
 90
    32800
  1

281
     0
 71
     1
 74
     1
110
0.0
120
0.0
130
0.0
111
1.0
121
0.0
131
0.0
112
0.0
122
1.0
132
0.0
 79
     0
146
0.0
170
     0
 61
     5
292
     1
282
     1
141
0.0
142
0.0
 63
   250
421
  3355443
  0
INSERT
  5
258
330
6C
100
AcDbEntity
 67
     1
  8
_ARDEX - WELDTEC_
100
AcDbBlockReference
  2
_ARDEX_ Landscape Title block - _ARDEX_ Landscape Title block-333213-PLANT EQUIPMENT SUPPORTS
 10
0.0
 20
0.0
 30
0.0
1001
REVIT
1002
{
1070
     1
1000
500026
1002
}
1002
{
1070
     5
1000
333213
1002
}
1002
{
1070
     2
1000
-2000280
1002
}
  0
MTEXT
  5
25A
330
6C
100
AcDbEntity
 67
     1
  8
_ARDEX - WELDTEC_
100
AcDbMText
 10
231.0292895384866
 20
4.159953483062439
 30
0.0
 40
2.0
 41
7.295356249999999
 46
0.0
 71
     1
 72
     1
  1
 1 : 2
  7
Swis721 Lt BT_4
 73
     2
 44
1.0
 90
        3
 63
     9
421
 13158600
 45
1.25
441
        0
1001
REVIT
1002
{
1070
     1
1000
500026
1002
}
1002
{
1070
     5
1000
333213
1002
}
1002
{
1070
     2
1000
-2000280
1002
}
  0
MTEXT
  5
25C
330
6C
100
AcDbEntity
 67
     1
  8
_ARDEX - WELDTEC_
 62
   133
420
  7589074
100
AcDbMText
 10
7.016261025088629
 20
17.11411991695474
 30
0.0
 40
5.0
 41
101.517688125
 46
0.0
 71
     1
 72
     1
  1
ARDEX WARM ROOFING
  7
Arial Black_B
 73
     2
 44
1.0
1001
REVIT
1002
{
1070
     1
1000
500026
1002
}
1002
{
1070
     5
1000
333213
1002
}
1002
{
1070
     2
1000
-2000280
1002
}
  0
MTEXT
  5
25E
330
6C
100
AcDbEntity
 67
     1
  8
_ARDEX - WELDTEC_
100
AcDbMText
 10
95.1576274176504
 20
13.00813448458874
 30
0.0
 40
3.0
 41
72.47255
 46
0.0
 71
     1
 72
     1
  1
PLANT EQUIPMENT SUPPORTS
  7
Swis721 Lt BT_5
 73
     2
 44
1.0
 90
        3
 63
     9
421
 13158600
 45
1.25
441
        0
1001
REVIT
1002
{
1070
     1
1000
500026
1002
}
1002
{
1070
     5
1000
333213
1002
}
1002
{
1070
     2
1000
-2000280
1002
}
  0
MTEXT
  5
260
330
6C
100
AcDbEntity
 67
     1
  8
_ARDEX - WELDTEC_
100
AcDbMText
 10
231.6542895384866
 20
17.41984908362141
 30
0.0
 40
4.0
 41
26.05484375
 46
0.0
 71
     1
 72
     1
  1
AWR-16
  7
Arial
 73
     2
 44
1.0
 90
        3
 63
     9
421
 13158600
 45
1.25
441
        0
1001
REVIT
1002
{
1070
     1
1000
500026
1002
}
1002
{
1070
     5
1000
333213
1002
}
1002
{
1070
     2
1000
-2000280
1002
}
  0
MTEXT
  5
261
330
6C
100
AcDbEntity
 67
     1
  8
_ARDEX - WELDTEC_
100
AcDbMText
 10
231.6542895384866
 20
8.218762607224865
 30
0.0
 40
2.0
 41
16.8354375
 46
0.0
 71
     1
 72
     1
  1
01/07/2022
  7
Swis721 Lt BT_4
 73
     2
 44
1.0
 90
        3
 63
     9
421
 13158600
 45
1.25
441
        0
1001
REVIT
1002
{
1070
     1
1000
500026
1002
}
1002
{
1070
     5
1000
333213
1002
}
1002
{
1070
     2
1000
-2000280
1002
}
  0
ENDSEC
  0
SECTION
  2
OBJECTS
  0
DICTIONARY
  5
C
330
0
100
AcDbDictionary
281
     1
  3
ACAD_CIP_PREVIOUS_PRODUCT_INFO
350
79
  3
ACAD_COLOR
350
63
  3
ACAD_DETAILVIEWSTYLE
350
6A
  3
ACAD_GROUP
350
D
  3
ACAD_IMAGE_VARS
350
7A
  3
ACAD_LAYOUT
350
62
  3
ACAD_MATERIAL
350
10
  3
ACAD_MLEADERSTYLE
350
66
  3
ACAD_MLINESTYLE
350
5F
  3
ACAD_PLOTSETTINGS
350
61
  3
ACAD_PLOTSTYLENAME
350
E
  3
ACAD_SCALELIST
350
42
  3
ACAD_SECTIONVIEWSTYLE
350
68
  3
ACAD_TABLESTYLE
350
64
  3
ACAD_VISUALSTYLE
350
29
  3
ACDB_RECOMPOSE_DATA
350
270
  3
AcDbVariableDictionary
350
7B
  3
REVIT_DICTIONARY
350
262
  0
SUN
  5
26A
330
57
100
AcDbSun
 90
        1
290
     1
 63
     7
421
 16777215
 40
0.3
291
     1
 91
  2459407
 92
 65372000
292
     0
 70
     1
 71
   128
280
     1
1001
ACAD
1000
AcDbSavedByObjectVersion
1070
     0
  0
DICTIONARY
  5
267
330
70
100
AcDbDictionary
280
     1
281
     1
  3
ACAD_SORTENTS
360
268
  0
XRECORD
  5
79
102
{ACAD_REACTORS
330
C
102
}
330
C
100
AcDbXrecord
280
     1
300
RVT
300
2023
300
RVT2023
  0
DICTIONARY
  5
63
102
{ACAD_REACTORS
330
C
102
}
330
C
100
AcDbDictionary
281
     1
  0
DICTIONARY
  5
6A
102
{ACAD_REACTORS
330
C
102
}
330
C
100
AcDbDictionary
281
     1
  3
Imperial24
350
6B
  0
DICTIONARY
  5
D
102
{ACAD_REACTORS
330
C
102
}
330
C
100
AcDbDictionary
281
     1
  0
RASTERVARIABLES
  5
7A
102
{ACAD_REACTORS
330
C
102
}
330
C
100
AcDbRasterVariables
 90
        0
 70
     0
 71
     1
 72
     1
  0
DICTIONARY
  5
62
102
{ACAD_REACTORS
330
C
102
}
330
C
100
AcDbDictionary
281
     1
  3
Layout1
350
6F
  3
Layout2
350
77
  3
Model
350
73
  0
DICTIONARY
  5
10
102
{ACAD_REACTORS
330
C
102
}
330
C
100
AcDbDictionary
281
     1
  3
ByBlock
350
19
  3
ByLayer
350
11
  3
Global
350
21
  0
DICTIONARY
  5
66
102
{ACAD_REACTORS
330
C
102
}
330
C
100
AcDbDictionary
281
     1
  3
Standard
350
67
  0
DICTIONARY
  5
5F
102
{ACAD_REACTORS
330
C
102
}
330
C
100
AcDbDictionary
281
     1
  3
Standard
350
60
  0
DICTIONARY
  5
61
102
{ACAD_REACTORS
330
C
102
}
330
C
100
AcDbDictionary
281
     1
  0
ACDBDICTIONARYWDFLT
  5
E
102
{ACAD_REACTORS
330
C
102
}
330
C
100
AcDbDictionary
281
     1
  3
Normal
350
F
100
AcDbDictionaryWithDefault
340
F
  0
DICTIONARY
  5
42
102
{ACAD_REACTORS
330
C
102
}
330
C
100
AcDbDictionary
281
     1
  3
A0
350
43
  3
A1
350
44
  3
A2
350
45
  3
A3
350
46
  3
A4
350
47
  3
A5
350
48
  3
A6
350
49
  3
A7
350
4A
  3
A8
350
4B
  3
A9
350
4C
  3
B0
350
4D
  3
B1
350
4E
  3
B2
350
4F
  3
B3
350
50
  3
B4
350
51
  3
B5
350
52
  3
B6
350
53
  0
DICTIONARY
  5
68
102
{ACAD_REACTORS
330
C
102
}
330
C
100
AcDbDictionary
281
     1
  3
Imperial24
350
69
  0
DICTIONARY
  5
64
102
{ACAD_REACTORS
330
C
102
}
330
C
100
AcDbDictionary
281
     1
  3
Standard
350
65
  0
DICTIONARY
  5
29
102
{ACAD_REACTORS
330
C
102
}
330
C
100
AcDbDictionary
281
     1
  3
2dWireframe
350
2F
  3
Basic
350
2E
  3
Brighten
350
35
  3
ColorChange
350
39
  3
Conceptual
350
32
  3
Dim
350
34
  3
EdgeColorOff
350
41
  3
Facepattern
350
38
  3
Flat
350
2A
  3
FlatWithEdges
350
2B
  3
Gouraud
350
2C
  3
GouraudWithEdges
350
2D
  3
Hidden
350
31
  3
JitterOff
350
3F
  3
Linepattern
350
37
  3
OverhangOff
350
40
  3
Realistic
350
33
  3
Shaded
350
3E
  3
Shaded with edges
350
3D
  3
Shades of Gray
350
3A
  3
Sketchy
350
3B
  3
Thicken
350
36
  3
Wireframe
350
30
  3
X-Ray
350
3C
  0
XRECORD
  5
270
102
{ACAD_REACTORS
330
C
102
}
330
C
100
AcDbXrecord
280
     1
 90
        1
330
65
  0
DICTIONARY
  5
7B
102
{ACAD_REACTORS
330
C
102
}
330
C
100
AcDbDictionary
281
     1
  3
CANNOSCALE
350
80
  3
CMLEADERSTYLE
350
7D
  3
CTABLESTYLE
350
7C
  3
CVIEWDETAILSTYLE
350
7E
  3
CVIEWSECTIONSTYLE
350
7F
  3
XCLIPFRAME
350
81
  0
DICTIONARY
  5
262
102
{ACAD_REACTORS
330
C
102
}
330
C
100
AcDbDictionary
281
     1
  3
DRAWING_TOOL
350
266
  3
REVIT_CATEGORY_MAPPING
350
264
  3
REVIT_SUB_CATEGORY_MAPPING
350
265
  3
REVIT_TYPE_MAPPING
350
263
  0
SORTENTSTABLE
  5
268
102
{ACAD_REACTORS
330
267
102
}
330
267
100
AcDbSortentsTable
330
70
  0
ACDBDETAILVIEWSTYLE
  5
6B
102
{ACAD_XDICTIONARY
360
2A6
102
}
102
{ACAD_REACTORS
330
6A
102
}
330
6A
100
AcDbModelDocViewStyle
 70
     0
  3
Imperial24
290
     0
100
AcDbDetailViewStyle
 70
     0
 71
     0
 90
        3
 71
     1
340
55
 62
   256
 40
0.24
340
0
 62
   256
 40
0.24
300

 40
0.36
280
     3
 71
     2
340
5D
 90
       25
 62
   256
 71
     3
340
55
 62
   256
 40
0.24
 90
        1
 40
0.75
 90
        1
300
%<\AcVar ViewType \f "%tc1">% %<\AcVar ViewDetailId>%\PSCALE %<\AcVar ViewScale \f "%sn">%
 71
     4
340
5D
 90
       25
 62
   256
340
5D
 90
       25
 62
   256
280
     0
  0
LAYOUT
  5
6F
102
{ACAD_REACTORS
330
62
102
}
330
62
100
AcDbPlotSettings
  1

  2

  4

  6

 40
0.0
 41
0.0
 42
0.0
 43
0.0
 44
0.0
 45
0.0
 46
0.0
 47
0.0
 48
0.0
 49
0.0
140
0.0
141
0.0
142
1.0
143
1.0
 70
   688
 72
     0
 73
     0
 74
     5
  7

 75
    16
147
1.0
 76
     0
 77
     2
 78
   300
148
0.0
149
0.0
100
AcDbLayout
  1
Layout1
 70
     1
 71
     1
 10
0.0
 20
0.0
 11
12.0
 21
9.0
 12
0.0
 22
0.0
 32
0.0
 14
0.0
 24
0.0
 34
0.0
 15
0.0
 25
0.0
 35
0.0
146
0.0
 13
0.0
 23
0.0
 33
0.0
 16
1.0
 26
0.0
 36
0.0
 17
0.0
 27
1.0
 37
0.0
 76
     0
330
6C
  0
LAYOUT
  5
77
102
{ACAD_REACTORS
330
62
102
}
330
62
100
AcDbPlotSettings
  1

  2

  4

  6

 40
0.0
 41
0.0
 42
0.0
 43
0.0
 44
0.0
 45
0.0
 46
0.0
 47
0.0
 48
0.0
 49
0.0
140
0.0
141
0.0
142
1.0
143
1.0
 70
   688
 72
     0
 73
     0
 74
     5
  7

 75
    16
147
1.0
 76
     0
 77
     2
 78
   300
148
0.0
149
0.0
100
AcDbLayout
  1
Layout2
 70
     1
 71
     2
 10
0.0
 20
0.0
 11
12.0
 21
9.0
 12
0.0
 22
0.0
 32
0.0
 14
0.0
 24
0.0
 34
0.0
 15
0.0
 25
0.0
 35
0.0
146
0.0
 13
0.0
 23
0.0
 33
0.0
 16
1.0
 26
0.0
 36
0.0
 17
0.0
 27
1.0
 37
0.0
 76
     0
330
74
  0
LAYOUT
  5
73
102
{ACAD_REACTORS
330
62
102
}
330
62
100
AcDbPlotSettings
  1

  2

  4

  6

 40
0.0
 41
0.0
 42
0.0
 43
0.0
 44
0.0
 45
0.0
 46
0.0
 47
0.0
 48
0.0
 49
0.0
140
0.0
141
0.0
142
1.0
143
1.0
 70
  1712
 72
     0
 73
     0
 74
     0
  7

 75
     0
147
1.0
 76
     0
 77
     2
 78
   300
148
0.0
149
0.0
100
AcDbLayout
  1
Model
 70
     1
 71
     0
 10
0.0
 20
0.0
 11
12.0
 21
9.0
 12
0.0
 22
0.0
 32
0.0
 14
0.0
 24
0.0
 34
0.0
 15
0.0
 25
0.0
 35
0.0
146
0.0
 13
0.0
 23
0.0
 33
0.0
 16
1.0
 26
0.0
 36
0.0
 17
0.0
 27
1.0
 37
0.0
 76
     0
330
70
  0
MATERIAL
  5
19
102
{ACAD_XDICTIONARY
360
1A
102
}
102
{ACAD_REACTORS
330
10
102
}
330
10
100
AcDbMaterial
  1
ByBlock
 72
     0
 43
0.0208333333333333
 43
0.0
 43
0.0
 43
0.0
 43
0.0
 43
0.0208333333333333
 43
0.0
 43
0.0
 43
0.0
 43
0.0
 43
1.0
 43
0.0
 43
0.0
 43
0.0
 43
0.0
 43
1.0
 77
     0
 47
0.0208333333333333
 47
0.0
 47
0.0
 47
0.0
 47
0.0
 47
0.0208333333333333
 47
0.0
 47
0.0
 47
0.0
 47
0.0
 47
1.0
 47
0.0
 47
0.0
 47
0.0
 47
0.0
 47
1.0
171
     0
 49
0.0208333333333333
 49
0.0
 49
0.0
 49
0.0
 49
0.0
 49
0.0208333333333333
 49
0.0
 49
0.0
 49
0.0
 49
0.0
 49
1.0
 49
0.0
 49
0.0
 49
0.0
 49
0.0
 49
1.0
175
     0
142
0.0208333333333333
142
0.0
142
0.0
142
0.0
142
0.0
142
0.0208333333333333
142
0.0
142
0.0
142
0.0
142
0.0
142
1.0
142
0.0
142
0.0
142
0.0
142
0.0
142
1.0
179
     0
144
0.0208333333333333
144
0.0
144
0.0
144
0.0
144
0.0
144
0.0208333333333333
144
0.0
144
0.0
144
0.0
144
0.0
144
1.0
144
0.0
144
0.0
144
0.0
144
0.0
144
1.0
147
0.0208333333333333
147
0.0
147
0.0
147
0.0
147
0.0
147
0.0208333333333333
147
0.0
147
0.0
147
0.0
147
0.0
147
1.0
147
0.0
147
0.0
147
0.0
147
0.0
147
1.0
  0
MATERIAL
  5
11
102
{ACAD_XDICTIONARY
360
12
102
}
102
{ACAD_REACTORS
330
10
102
}
330
10
100
AcDbMaterial
  1
ByLayer
 72
     0
 43
0.0208333333333333
 43
0.0
 43
0.0
 43
0.0
 43
0.0
 43
0.0208333333333333
 43
0.0
 43
0.0
 43
0.0
 43
0.0
 43
1.0
 43
0.0
 43
0.0
 43
0.0
 43
0.0
 43
1.0
 77
     0
 47
0.0208333333333333
 47
0.0
 47
0.0
 47
0.0
 47
0.0
 47
0.0208333333333333
 47
0.0
 47
0.0
 47
0.0
 47
0.0
 47
1.0
 47
0.0
 47
0.0
 47
0.0
 47
0.0
 47
1.0
171
     0
 49
0.0208333333333333
 49
0.0
 49
0.0
 49
0.0
 49
0.0
 49
0.0208333333333333
 49
0.0
 49
0.0
 49
0.0
 49
0.0
 49
1.0
 49
0.0
 49
0.0
 49
0.0
 49
0.0
 49
1.0
175
     0
142
0.0208333333333333
142
0.0
142
0.0
142
0.0
142
0.0
142
0.0208333333333333
142
0.0
142
0.0
142
0.0
142
0.0
142
1.0
142
0.0
142
0.0
142
0.0
142
0.0
142
1.0
179
     0
144
0.0208333333333333
144
0.0
144
0.0
144
0.0
144
0.0
144
0.0208333333333333
144
0.0
144
0.0
144
0.0
144
0.0
144
1.0
144
0.0
144
0.0
144
0.0
144
0.0
144
1.0
147
0.0208333333333333
147
0.0
147
0.0
147
0.0
147
0.0
147
0.0208333333333333
147
0.0
147
0.0
147
0.0
147
0.0
147
1.0
147
0.0
147
0.0
147
0.0
147
0.0
147
1.0
  0
MATERIAL
  5
21
102
{ACAD_XDICTIONARY
360
22
102
}
102
{ACAD_REACTORS
330
10
102
}
330
10
100
AcDbMaterial
  1
Global
 72
     0
 43
0.0208333333333333
 43
0.0
 43
0.0
 43
0.0
 43
0.0
 43
0.0208333333333333
 43
0.0
 43
0.0
 43
0.0
 43
0.0
 43
1.0
 43
0.0
 43
0.0
 43
0.0
 43
0.0
 43
1.0
 77
     0
 47
0.0208333333333333
 47
0.0
 47
0.0
 47
0.0
 47
0.0
 47
0.0208333333333333
 47
0.0
 47
0.0
 47
0.0
 47
0.0
 47
1.0
 47
0.0
 47
0.0
 47
0.0
 47
0.0
 47
1.0
171
     0
 49
0.0208333333333333
 49
0.0
 49
0.0
 49
0.0
 49
0.0
 49
0.0208333333333333
 49
0.0
 49
0.0
 49
0.0
 49
0.0
 49
1.0
 49
0.0
 49
0.0
 49
0.0
 49
0.0
 49
1.0
175
     0
142
0.0208333333333333
142
0.0
142
0.0
142
0.0
142
0.0
142
0.0208333333333333
142
0.0
142
0.0
142
0.0
142
0.0
142
1.0
142
0.0
142
0.0
142
0.0
142
0.0
142
1.0
179
     0
144
0.0208333333333333
144
0.0
144
0.0
144
0.0
144
0.0
144
0.0208333333333333
144
0.0
144
0.0
144
0.0
144
0.0
144
1.0
144
0.0
144
0.0
144
0.0
144
0.0
144
1.0
147
0.0208333333333333
147
0.0
147
0.0
147
0.0
147
0.0
147
0.0208333333333333
147
0.0
147
0.0
147
0.0
147
0.0
147
1.0
147
0.0
147
0.0
147
0.0
147
0.0
147
1.0
  0
MLEADERSTYLE
  5
67
102
{ACAD_XDICTIONARY
360
2A2
102
}
102
{ACAD_REACTORS
330
66
102
}
330
66
100
AcDbMLeaderStyle
170
     2
171
     1
172
     0
 90
        2
 40
0.0
 41
0.0
173
     1
 91
-1056964608
340
5B
 92
       -2
290
     1
 42
0.09
291
     1
 43
0.36
  3
Standard
 44
0.18
300

342
55
174
     1
178
     6
175
     1
176
     0
 93
-1056964608
 45
0.18
292
     0
297
     0
 46
0.18
 94
-1056964608
 47
1.0
 49
1.0
140
1.0
293
     1
141
0.0
294
     1
177
     0
142
1.0
295
     0
296
     0
143
0.125
1001
ACAD_MLEADERVER
1070
     2
  0
MLINESTYLE
  5
60
102
{ACAD_REACTORS
330
5F
102
}
330
5F
100
AcDbMlineStyle
  2
STANDARD
 70
     0
  3

 62
   256
 51
90.0
 52
90.0
 71
     2
 49
0.5
 62
   256
  6
BYLAYER
 49
-0.5
 62
   256
  6
BYLAYER
  0
ACDBPLACEHOLDER
  5
F
102
{ACAD_REACTORS
330
E
102
}
330
E
  0
SCALE
  5
43
102
{ACAD_REACTORS
330
42
102
}
330
42
100
AcDbScale
 70
     0
300
1:1
140
1.0
141
1.0
290
     1
  0
SCALE
  5
44
102
{ACAD_REACTORS
330
42
102
}
330
42
100
AcDbScale
 70
     0
300
1/128" = 1'-0"
140
0.0078125
141
12.0
290
     0
  0
SCALE
  5
45
102
{ACAD_REACTORS
330
42
102
}
330
42
100
AcDbScale
 70
     0
300
1/64" = 1'-0"
140
0.015625
141
12.0
290
     0
  0
SCALE
  5
46
102
{ACAD_REACTORS
330
42
102
}
330
42
100
AcDbScale
 70
     0
300
1/32" = 1'-0"
140
0.03125
141
12.0
290
     0
  0
SCALE
  5
47
102
{ACAD_REACTORS
330
42
102
}
330
42
100
AcDbScale
 70
     0
300
1/16" = 1'-0"
140
0.0625
141
12.0
290
     0
  0
SCALE
  5
48
102
{ACAD_REACTORS
330
42
102
}
330
42
100
AcDbScale
 70
     0
300
3/32" = 1'-0"
140
0.09375
141
12.0
290
     0
  0
SCALE
  5
49
102
{ACAD_REACTORS
330
42
102
}
330
42
100
AcDbScale
 70
     0
300
1/8" = 1'-0"
140
0.125
141
12.0
290
     0
  0
SCALE
  5
4A
102
{ACAD_REACTORS
330
42
102
}
330
42
100
AcDbScale
 70
     0
300
3/16" = 1'-0"
140
0.1875
141
12.0
290
     0
  0
SCALE
  5
4B
102
{ACAD_REACTORS
330
42
102
}
330
42
100
AcDbScale
 70
     0
300
1/4" = 1'-0"
140
0.25
141
12.0
290
     0
  0
SCALE
  5
4C
102
{ACAD_REACTORS
330
42
102
}
330
42
100
AcDbScale
 70
     0
300
3/8" = 1'-0"
140
0.375
141
12.0
290
     0
  0
SCALE
  5
4D
102
{ACAD_REACTORS
330
42
102
}
330
42
100
AcDbScale
 70
     0
300
1/2" = 1'-0"
140
0.5
141
12.0
290
     0
  0
SCALE
  5
4E
102
{ACAD_REACTORS
330
42
102
}
330
42
100
AcDbScale
 70
     0
300
3/4" = 1'-0"
140
0.75
141
12.0
290
     0
  0
SCALE
  5
4F
102
{ACAD_REACTORS
330
42
102
}
330
42
100
AcDbScale
 70
     0
300
1" = 1'-0"
140
1.0
141
12.0
290
     0
  0
SCALE
  5
50
102
{ACAD_REACTORS
330
42
102
}
330
42
100
AcDbScale
 70
     0
300
1-1/2" = 1'-0"
140
1.5
141
12.0
290
     0
  0
SCALE
  5
51
102
{ACAD_REACTORS
330
42
102
}
330
42
100
AcDbScale
 70
     0
300
3" = 1'-0"
140
3.0
141
12.0
290
     0
  0
SCALE
  5
52
102
{ACAD_REACTORS
330
42
102
}
330
42
100
AcDbScale
 70
     0
300
6" = 1'-0"
140
6.0
141
12.0
290
     0
  0
SCALE
  5
53
102
{ACAD_REACTORS
330
42
102
}
330
42
100
AcDbScale
 70
     0
300
1'-0" = 1'-0"
140
12.0
141
12.0
290
     0
  0
ACDBSECTIONVIEWSTYLE
  5
69
102
{ACAD_XDICTIONARY
360
2A4
102
}
102
{ACAD_REACTORS
330
68
102
}
330
68
100
AcDbModelDocViewStyle
 70
     0
  3
Imperial24
290
     0
100
AcDbSectionViewStyle
 70
     0
 71
     0
 90
       78
 71
     1
340
55
 62
   256
 40
0.24
340
0
340
0
 62
   256
 40
0.24
300
I, O, Q, S, X, Z
 40
0.48
 90
        3
 40
0.18
 90
        1
 71
     2
340
5D
 90
       25
 62
   256
340
5D
 90
       50
 62
   256
 40
0.24
 40
0.0
 40
0.24
 71
     3
340
55
 62
   256
 40
0.24
 90
        1
 40
0.75
 90
        1
300
%<\AcVar ViewType \f "%tc1">% %<\AcVar ViewSectionStartId>%-%<\AcVar ViewSectionEndId>%\PSCALE %<\AcVar ViewScale \f "%sn">%
 71
     4
 62
   256
 62
   257
300
ANSI31
 40
1.0
 90
        0
290
     0
290
     0
 90
        6
 40
0.0
 40
1.570796326794896
 40
0.2617993877991494
 40
1.308996938995747
 40
-0.2617993877991494
 40
1.832595714594046
  0
TABLESTYLE
  5
65
102
{ACAD_XDICTIONARY
360
26B
102
}
102
{ACAD_REACTORS
330
64
102
}
330
64
100
AcDbTableStyle
  3
Standard
 70
     0
 71
     0
 40
0.06
 41
0.06
280
     0
281
     0
  7
Standard
140
0.18
170
     2
 62
     0
 63
     7
283
     0
 90
      512
 91
        0
  1

274
    -2
284
     1
 64
     0
275
    -2
285
     1
 65
     0
276
    -2
286
     1
 66
     0
277
    -2
287
     1
 67
     0
278
    -2
288
     1
 68
     0
279
    -2
289
     1
 69
     0
  7
Standard
140
0.25
170
     5
 62
     0
 63
     7
283
     0
 90
      512
 91
        0
  1

274
    -2
284
     1
 64
     0
275
    -2
285
     1
 65
     0
276
    -2
286
     1
 66
     0
277
    -2
287
     1
 67
     0
278
    -2
288
     1
 68
     0
279
    -2
289
     1
 69
     0
  7
Standard
140
0.18
170
     5
 62
     0
 63
     7
283
     0
 90
      512
 91
        0
  1

274
    -2
284
     1
 64
     0
275
    -2
285
     1
 65
     0
276
    -2
286
     1
 66
     0
277
    -2
287
     1
 67
     0
278
    -2
288
     1
 68
     0
279
    -2
289
     1
 69
     0
  0
VISUALSTYLE
  5
2F
102
{ACAD_XDICTIONARY
360
27B
102
}
102
{ACAD_REACTORS
330
29
102
}
330
29
100
AcDbVisualStyle
  2
2dWireframe
 70
     4
 71
     0
 72
     2
 73
     0
 90
        0
 40
-0.6
 41
-30.0
 62
     5
 63
     7
421
 16777215
 74
     1
 91
        4
 64
     7
 65
   257
 75
     1
175
     1
 42
1.0
 92
        0
 66
   257
 43
1.0
 76
     1
 77
     6
 78
     2
 67
     7
 79
     5
170
     0
171
     0
290
     0
174
     0
 93
        1
 44
0.0
173
     0
291
     0
 45
0.0
1001
ACAD
1000
AcDbSavedByObjectVersion
1070
     0
  0
VISUALSTYLE
  5
2E
102
{ACAD_XDICTIONARY
360
279
102
}
102
{ACAD_REACTORS
330
29
102
}
330
29
100
AcDbVisualStyle
  2
Basic
 70
     7
 71
     1
 72
     0
 73
     1
 90
        0
 40
-0.6
 41
-30.0
 62
     5
 63
     7
421
 16777215
 74
     0
 91
        4
 64
     7
 65
   257
 75
     1
175
     1
 42
1.0
 92
        8
 66
     7
 43
1.0
 76
     1
 77
     6
 78
     2
 67
     7
 79
     5
170
     0
171
     0
290
     0
174
     0
 93
        1
 44
0.0
173
     0
291
     1
 45
0.0
1001
ACAD
1000
AcDbSavedByObjectVersion
1070
     0
  0
VISUALSTYLE
  5
35
102
{ACAD_XDICTIONARY
360
287
102
}
102
{ACAD_REACTORS
330
29
102
}
330
29
100
AcDbVisualStyle
  2
Brighten
 70
    12
 71
     2
 72
     2
 73
     0
 90
        0
 40
-0.6
 41
-30.0
 62
     5
 63
     7
421
 16777215
 74
     1
 91
        4
 64
     7
 65
   257
 75
     1
175
     1
 42
1.0
 92
        8
 66
     7
 43
1.0
 76
     1
 77
     6
 78
     2
 67
     7
 79
     5
170
     0
171
     0
290
     0
174
     0
 93
        1
 44
50.0
173
     0
291
     1
 45
0.0
1001
ACAD
1000
AcDbSavedByObjectVersion
1070
     0
  0
VISUALSTYLE
  5
39
102
{ACAD_XDICTIONARY
360
28F
102
}
102
{ACAD_REACTORS
330
29
102
}
330
29
100
AcDbVisualStyle
  2
ColorChange
 70
    16
 71
     2
 72
     2
 73
     3
 90
        0
 40
-0.6
 41
-30.0
 62
     5
 63
     8
421
  8421504
 74
     1
 91
        4
 64
     7
 65
   257
 75
     1
175
     1
 42
1.0
 92
        8
 66
     8
424
  8421504
 43
1.0
 76
     1
 77
     6
 78
     2
 67
     7
 79
     5
170
     0
171
     0
290
     0
174
     0
 93
        1
 44
0.0
173
     0
291
     1
 45
0.0
1001
ACAD
1000
AcDbSavedByObjectVersion
1070
     0
  0
VISUALSTYLE
  5
32
102
{ACAD_XDICTIONARY
360
281
102
}
102
{ACAD_REACTORS
330
29
102
}
330
29
100
AcDbVisualStyle
  2
Conceptual
 70
     9
 71
     3
 72
     2
 73
     0
 90
        0
 40
-0.6
 41
-30.0
 62
     5
 63
     7
421
 16777215
 74
     2
 91
        2
 64
     7
 65
   257
 75
     1
175
     1
 42
179.0
 92
        8
 66
     7
 43
1.0
 76
     1
 77
     6
 78
     2
 67
     7
 79
     3
170
     0
171
     0
290
     0
174
     0
 93
        1
 44
0.0
173
     0
291
     0
 45
0.0
1001
ACAD
1000
AcDbSavedByObjectVersion
1070
     0
  0
VISUALSTYLE
  5
34
102
{ACAD_XDICTIONARY
360
285
102
}
102
{ACAD_REACTORS
330
29
102
}
330
29
100
AcDbVisualStyle
  2
Dim
 70
    11
 71
     2
 72
     2
 73
     0
 90
        0
 40
-0.6
 41
-30.0
 62
     5
 63
     7
421
 16777215
 74
     1
 91
        4
 64
     7
 65
   257
 75
     1
175
     1
 42
1.0
 92
        8
 66
     7
 43
1.0
 76
     1
 77
     6
 78
     2
 67
     7
 79
     5
170
     0
171
     0
290
     0
174
     0
 93
        1
 44
-50.0
173
     0
291
     1
 45
0.0
1001
ACAD
1000
AcDbSavedByObjectVersion
1070
     0
  0
VISUALSTYLE
  5
41
102
{ACAD_XDICTIONARY
360
29F
102
}
102
{ACAD_REACTORS
330
29
102
}
330
29
100
AcDbVisualStyle
  2
EdgeColorOff
 70
    22
 71
     2
 72
     2
 73
     0
 90
        0
 40
-0.6
 41
-30.0
 62
     5
 63
     7
421
 16777215
 74
     1
 91
        4
 64
     7
 65
   257
 75
     1
175
     1
 42
1.0
 92
        8
 66
     7
 43
1.0
 76
     1
 77
     6
 78
     2
 67
     7
 79
     5
170
     0
171
     0
290
     0
174
     0
 93
        1
 44
0.0
173
     0
291
     1
 45
0.0
1001
ACAD
1000
AcDbSavedByObjectVersion
1070
     0
  0
VISUALSTYLE
  5
38
102
{ACAD_XDICTIONARY
360
28D
102
}
102
{ACAD_REACTORS
330
29
102
}
330
29
100
AcDbVisualStyle
  2
Facepattern
 70
    15
 71
     2
 72
     2
 73
     0
 90
        0
 40
-0.6
 41
-30.0
 62
     5
 63
     7
421
 16777215
 74
     1
 91
        4
 64
     7
 65
   257
 75
     1
175
     1
 42
1.0
 92
        8
 66
     7
 43
1.0
 76
     1
 77
     6
 78
     2
 67
     7
 79
     5
170
     0
171
     0
290
     0
174
     0
 93
        1
 44
0.0
173
     0
291
     1
 45
0.0
1001
ACAD
1000
AcDbSavedByObjectVersion
1070
     0
  0
VISUALSTYLE
  5
2A
102
{ACAD_XDICTIONARY
360
271
102
}
102
{ACAD_REACTORS
330
29
102
}
330
29
100
AcDbVisualStyle
  2
Flat
 70
     0
 71
     2
 72
     1
 73
     1
 90
        2
 40
-0.6
 41
30.0
 62
     5
 63
     7
421
 16777215
 74
     0
 91
        0
 64
     7
 65
   257
 75
     1
175
     1
 42
1.0
 92
        8
 66
     7
 43
1.0
 76
     1
 77
     6
 78
     2
 67
     7
 79
     5
170
     0
171
     0
290
     0
174
     0
 93
       13
 44
0.0
173
     0
291
     1
 45
0.0
1001
ACAD
1000
AcDbSavedByObjectVersion
1070
     0
  0
VISUALSTYLE
  5
2B
102
{ACAD_XDICTIONARY
360
273
102
}
102
{ACAD_REACTORS
330
29
102
}
330
29
100
AcDbVisualStyle
  2
FlatWithEdges
 70
     1
 71
     2
 72
     1
 73
     1
 90
        2
 40
-0.6
 41
30.0
 62
     5
 63
     7
421
 16777215
 74
     1
 91
        0
 64
     7
 65
   257
 75
     1
175
     1
 42
1.0
 92
        0
 66
   257
 43
1.0
 76
     1
 77
     6
 78
     2
 67
     7
 79
     5
170
     0
171
     0
290
     0
174
     0
 93
       13
 44
0.0
173
     0
291
     1
 45
0.0
1001
ACAD
1000
AcDbSavedByObjectVersion
1070
     0
  0
VISUALSTYLE
  5
2C
102
{ACAD_XDICTIONARY
360
275
102
}
102
{ACAD_REACTORS
330
29
102
}
330
29
100
AcDbVisualStyle
  2
Gouraud
 70
     2
 71
     2
 72
     2
 73
     1
 90
        2
 40
-0.6
 41
30.0
 62
     5
 63
     7
421
 16777215
 74
     0
 91
        0
 64
     7
 65
   257
 75
     1
175
     1
 42
1.0
 92
        0
 66
     7
 43
1.0
 76
     1
 77
     6
 78
     2
 67
     7
 79
     5
170
     0
171
     0
290
     0
174
     0
 93
       13
 44
0.0
173
     0
291
     1
 45
0.0
1001
ACAD
1000
AcDbSavedByObjectVersion
1070
     0
  0
VISUALSTYLE
  5
2D
102
{ACAD_XDICTIONARY
360
277
102
}
102
{ACAD_REACTORS
330
29
102
}
330
29
100
AcDbVisualStyle
  2
GouraudWithEdges
 70
     3
 71
     2
 72
     2
 73
     1
 90
        2
 40
-0.6
 41
30.0
 62
     5
 63
     7
421
 16777215
 74
     1
 91
        0
 64
     7
 65
   257
 75
     1
175
     1
 42
1.0
 92
        0
 66
   257
 43
1.0
 76
     1
 77
     6
 78
     2
 67
     7
 79
     5
170
     0
171
     0
290
     0
174
     0
 93
       13
 44
0.0
173
     0
291
     1
 45
0.0
1001
ACAD
1000
AcDbSavedByObjectVersion
1070
     0
  0
VISUALSTYLE
  5
31
102
{ACAD_XDICTIONARY
360
27F
102
}
102
{ACAD_REACTORS
330
29
102
}
330
29
100
AcDbVisualStyle
  2
Hidden
 70
     6
 71
     1
 72
     2
 73
     2
 90
        0
 40
-0.6
 41
-30.0
 62
     5
 63
     7
421
 16777215
 74
     2
 91
        2
 64
     7
 65
   257
 75
     2
175
     1
 42
40.0
 92
        0
 66
   257
 43
1.0
 76
     1
 77
     6
 78
     2
 67
     7
 79
     3
170
     0
171
     0
290
     0
174
     0
 93
        1
 44
0.0
173
     0
291
     0
 45
0.0
1001
ACAD
1000
AcDbSavedByObjectVersion
1070
     0
  0
VISUALSTYLE
  5
3F
102
{ACAD_XDICTIONARY
360
29B
102
}
102
{ACAD_REACTORS
330
29
102
}
330
29
100
AcDbVisualStyle
  2
JitterOff
 70
    20
 71
     2
 72
     2
 73
     0
 90
        0
 40
-0.6
 41
-30.0
 62
     5
 63
     7
421
 16777215
 74
     1
 91
        4
 64
     7
 65
   257
 75
     1
175
     1
 42
1.0
 92
       10
 66
     7
 43
1.0
 76
     1
 77
     6
 78
     2
 67
     7
 79
     5
170
     0
171
     0
290
     0
174
     0
 93
        1
 44
0.0
173
     0
291
     1
 45
0.0
1001
ACAD
1000
AcDbSavedByObjectVersion
1070
     0
  0
VISUALSTYLE
  5
37
102
{ACAD_XDICTIONARY
360
28B
102
}
102
{ACAD_REACTORS
330
29
102
}
330
29
100
AcDbVisualStyle
  2
Linepattern
 70
    14
 71
     2
 72
     2
 73
     0
 90
        0
 40
-0.6
 41
-30.0
 62
     5
 63
     7
421
 16777215
 74
     1
 91
        4
 64
     7
 65
   257
 75
     7
175
     7
 42
1.0
 92
        8
 66
     7
 43
1.0
 76
     1
 77
     6
 78
     2
 67
     7
 79
     5
170
     0
171
     0
290
     0
174
     0
 93
        1
 44
0.0
173
     0
291
     1
 45
0.0
1001
ACAD
1000
AcDbSavedByObjectVersion
1070
     0
  0
VISUALSTYLE
  5
40
102
{ACAD_XDICTIONARY
360
29D
102
}
102
{ACAD_REACTORS
330
29
102
}
330
29
100
AcDbVisualStyle
  2
OverhangOff
 70
    21
 71
     2
 72
     2
 73
     0
 90
        0
 40
-0.6
 41
-30.0
 62
     5
 63
     7
421
 16777215
 74
     1
 91
        4
 64
     7
 65
   257
 75
     1
175
     1
 42
1.0
 92
        9
 66
     7
 43
1.0
 76
     1
 77
     6
 78
     2
 67
     7
 79
     5
170
     0
171
     0
290
     0
174
     0
 93
        1
 44
0.0
173
     0
291
     1
 45
0.0
1001
ACAD
1000
AcDbSavedByObjectVersion
1070
     0
  0
VISUALSTYLE
  5
33
102
{ACAD_XDICTIONARY
360
283
102
}
102
{ACAD_REACTORS
330
29
102
}
330
29
100
AcDbVisualStyle
  2
Realistic
 70
     8
 71
     2
 72
     3
 73
     0
 90
        2
 40
-0.6
 41
30.0
 62
     5
 63
     7
421
 16777215
 74
     0
 91
        0
 64
     7
 65
   257
 75
     1
175
     1
 42
1.0
 92
        8
 66
   257
 43
1.0
 76
     1
 77
     6
 78
     2
 67
     7
 79
     3
170
     0
171
     0
290
     0
174
     0
 93
       13
 44
0.0
173
     0
291
     0
 45
0.0
1001
ACAD
1000
AcDbSavedByObjectVersion
1070
     0
  0
VISUALSTYLE
  5
3E
102
{ACAD_XDICTIONARY
360
299
102
}
102
{ACAD_REACTORS
330
29
102
}
330
29
100
AcDbVisualStyle
  2
Shaded
 70
    27
 71
     2
 72
     2
 73
     1
 90
        2
 40
-0.6
 41
30.0
 62
     5
 63
     7
421
 16777215
 74
     0
 91
        4
 64
     7
 65
   257
 75
     1
175
     1
 42
1.0
 92
        8
 66
   257
 43
1.0
 76
     1
 77
     6
 78
     2
 67
     8
425
  7895160
 79
     3
170
     0
171
     0
290
     0
174
     0
 93
        5
 44
0.0
173
     0
291
     0
 45
0.0
1001
ACAD
1000
AcDbSavedByObjectVersion
1070
     0
  0
VISUALSTYLE
  5
3D
102
{ACAD_XDICTIONARY
360
297
102
}
102
{ACAD_REACTORS
330
29
102
}
330
29
100
AcDbVisualStyle
  2
Shaded with edges
 70
    26
 71
     2
 72
     2
 73
     1
 90
        2
 40
-0.6
 41
30.0
 62
     5
 63
     7
421
 16777215
 74
     1
 91
        2
 64
     7
 65
   257
 75
     2
175
     1
 42
1.0
 92
        8
 66
   257
 43
1.0
 76
     1
 77
     6
 78
     2
 67
     7
 79
     3
170
     0
171
     0
290
     0
174
     0
 93
        5
 44
0.0
173
     0
291
     0
 45
0.0
1001
ACAD
1000
AcDbSavedByObjectVersion
1070
     0
  0
VISUALSTYLE
  5
3A
102
{ACAD_XDICTIONARY
360
291
102
}
102
{ACAD_REACTORS
330
29
102
}
330
29
100
AcDbVisualStyle
  2
Shades of Gray
 70
    23
 71
     2
 72
     2
 73
     3
 90
        0
 40
-0.6
 41
-30.0
 62
     5
 63
     7
421
 16777215
 74
     2
 91
        2
 64
     7
 65
     7
 75
     1
175
     1
 42
40.0
 92
        8
 66
     7
 43
1.0
 76
     1
 77
     6
 78
     2
 67
     7
 79
     3
170
     0
171
     0
290
     0
174
     0
 93
        1
 44
0.0
173
     0
291
     0
 45
0.0
1001
ACAD
1000
AcDbSavedByObjectVersion
1070
     0
  0
VISUALSTYLE
  5
3B
102
{ACAD_XDICTIONARY
360
293
102
}
102
{ACAD_REACTORS
330
29
102
}
330
29
100
AcDbVisualStyle
  2
Sketchy
 70
    24
 71
     1
 72
     2
 73
     2
 90
        0
 40
-0.6
 41
-30.0
 62
     5
 63
     7
421
 16777215
 74
     2
 91
        2
 64
     7
 65
     7
 75
     1
175
     1
 42
40.0
 92
       11
 66
     7
 43
1.0
 76
     1
 77
     6
 78
     2
 67
     7
 79
     6
170
     0
171
     0
290
     0
174
     0
 93
        1
 44
0.0
173
     0
291
     0
 45
0.0
1001
ACAD
1000
AcDbSavedByObjectVersion
1070
     0
  0
VISUALSTYLE
  5
36
102
{ACAD_XDICTIONARY
360
289
102
}
102
{ACAD_REACTORS
330
29
102
}
330
29
100
AcDbVisualStyle
  2
Thicken
 70
    13
 71
     2
 72
     2
 73
     0
 90
        0
 40
-0.6
 41
-30.0
 62
     5
 63
     7
421
 16777215
 74
     1
 91
        4
 64
     7
 65
   257
 75
     1
175
     1
 42
1.0
 92
       12
 66
     7
 43
1.0
 76
     1
 77
     6
 78
     2
 67
     7
 79
     5
170
     0
171
     0
290
     0
174
     0
 93
        1
 44
0.0
173
     0
291
     1
 45
0.0
1001
ACAD
1000
AcDbSavedByObjectVersion
1070
     0
  0
VISUALSTYLE
  5
30
102
{ACAD_XDICTIONARY
360
27D
102
}
102
{ACAD_REACTORS
330
29
102
}
330
29
100
AcDbVisualStyle
  2
Wireframe
 70
     5
 71
     0
 72
     2
 73
     0
 90
        0
 40
-0.6
 41
-30.0
 62
     5
 63
     7
421
 16777215
 74
     1
 91
        4
 64
     7
 65
   257
 75
     1
175
     1
 42
1.0
 92
        0
 66
   257
 43
1.0
 76
     1
 77
     6
 78
     2
 67
     7
 79
     3
170
     0
171
     0
290
     0
174
     0
 93
        1
 44
0.0
173
     0
291
     0
 45
0.0
1001
ACAD
1000
AcDbSavedByObjectVersion
1070
     0
  0
VISUALSTYLE
  5
3C
102
{ACAD_XDICTIONARY
360
295
102
}
102
{ACAD_REACTORS
330
29
102
}
330
29
100
AcDbVisualStyle
  2
X-Ray
 70
    25
 71
     2
 72
     2
 73
     1
 90
        1
 40
0.5
 41
-30.0
 62
     5
 63
     7
421
 16777215
 74
     1
 91
        0
 64
     7
 65
   257
 75
     1
175
     1
 42
1.0
 92
        8
 66
     7
 43
1.0
 76
     1
 77
     6
 78
     2
 67
     7
 79
     3
170
     0
171
     0
290
     0
174
     0
 93
       13
 44
0.0
173
     0
291
     0
 45
0.0
1001
ACAD
1000
AcDbSavedByObjectVersion
1070
     0
  0
DICTIONARYVAR
  5
80
102
{ACAD_REACTORS
330
7B
102
}
330
7B
100
DictionaryVariables
280
     0
  1
1:1
  0
DICTIONARYVAR
  5
7D
102
{ACAD_REACTORS
330
7B
102
}
330
7B
100
DictionaryVariables
280
     0
  1
STANDARD
  0
DICTIONARYVAR
  5
7C
102
{ACAD_REACTORS
330
7B
102
}
330
7B
100
DictionaryVariables
280
     0
  1
STANDARD
  0
DICTIONARYVAR
  5
7E
102
{ACAD_REACTORS
330
7B
102
}
330
7B
100
DictionaryVariables
280
     0
  1
Imperial24
  0
DICTIONARYVAR
  5
7F
102
{ACAD_REACTORS
330
7B
102
}
330
7B
100
DictionaryVariables
280
     0
  1
Imperial24
  0
DICTIONARYVAR
  5
81
102
{ACAD_REACTORS
330
7B
102
}
330
7B
100
DictionaryVariables
280
     0
  1
2
  0
XRECORD
  5
266
102
{ACAD_REACTORS
330
262
102
}
330
262
100
AcDbXrecord
280
     1
  1
BUILDING_ID
  1
22-07-08 Ardex Mebrane 2023 Revit File
  1
FLOOR_ID
  1
500021
  0
XRECORD
  5
264
102
{ACAD_REACTORS
330
262
102
}
330
262
100
AcDbXrecord
280
     1
  1
-2000051
  1
Lines
  1
-2000280
  1
Title Blocks
  1
-2002000
  1
Detail Items
  1
-2005022
  1
Multi-Category Tags
  0
XRECORD
  5
265
102
{ACAD_REACTORS
330
262
102
}
330
262
100
AcDbXrecord
280
     1
  1
-2000288
  1
<Centerline>
  1
330670
  1
(ARDEX) Lines 02
  1
330678
  1
(ARDEX) Lines 01 Grey
  1
335606
  1
(ARDEX) Lines 01
  1
335610
  1
(ARDEX) Lines 03
  1
342012
  1
(ARDEX) Lines 05 Dashed
  1
352413
  1
(ARDEX) Lines 08 Dashed
  1
411603
  1
Light Lines
  1
488774
  1
05
  1
488778
  1
Cut Lines
  0
XRECORD
  5
263
102
{ACAD_REACTORS
330
262
102
}
330
262
100
AcDbXrecord
280
     1
  1
333213
  1
(ARDEX) Landscape Title block : (ARDEX) Landscape Title block
  1
372253
  1
(ARDEX) Tag Multi Category : Detail components
  1
372261
  1
(ARDEX) Tag Multi Category : Comments
  1
489751
  1
(ARDEX) Framing : Framing
  1
514056
  1
(ARDEX) Lining - Various : Plinth
  1
515708
  1
(ARDEX) Fixing 2 : (ARDEX) Fixing 2
  1
569180
  1
(ARDEX) Lines : Membrane
  1
569182
  1
(ARDEX) Lining - Various : Polyiso Board 35MM
  1
569184
  1
(ARDEX) Lines : Barrier
  1
569186
  1
(ARDEX) Lining - Various : Substrate
  1
611702
  1
Fix - Nail : Nail
  0
DICTIONARY
  5
2A6
330
6B
100
AcDbDictionary
280
     1
281
     1
  3
ACAD_XREC_ROUNDTRIP
360
2A7
  0
DICTIONARY
  5
1A
330
19
100
AcDbDictionary
280
     1
281
     1
  3
BUMPTILE
360
1C
  3
DIFFUSETILE
360
1B
  3
OPACITYTILE
360
1F
  3
REFLECTIONTILE
360
1E
  3
REFRACTIONTILE
360
20
  3
SPECULARTILE
360
1D
  0
DICTIONARY
  5
12
330
11
100
AcDbDictionary
280
     1
281
     1
  3
BUMPTILE
360
14
  3
DIFFUSETILE
360
13
  3
OPACITYTILE
360
17
  3
REFLECTIONTILE
360
16
  3
REFRACTIONTILE
360
18
  3
SPECULARTILE
360
15
  0
DICTIONARY
  5
22
330
21
100
AcDbDictionary
280
     1
281
     1
  3
BUMPTILE
360
24
  3
DIFFUSETILE
360
23
  3
OPACITYTILE
360
27
  3
REFLECTIONTILE
360
26
  3
REFRACTIONTILE
360
28
  3
SPECULARTILE
360
25
  0
DICTIONARY
  5
2A2
330
67
100
AcDbDictionary
280
     1
281
     1
  3
ACAD_XREC_ROUNDTRIP
360
2A3
  0
DICTIONARY
  5
2A4
330
69
100
AcDbDictionary
280
     1
281
     1
  3
ACAD_XREC_ROUNDTRIP
360
2A5
  0
DICTIONARY
  5
26B
330
65
100
AcDbDictionary
280
     1
281
     1
  3
ACAD_ROUNDTRIP_2008_TABLESTYLE_CELLSTYLEMAP
360
26C
  0
DICTIONARY
  5
27B
330
2F
100
AcDbDictionary
280
     1
281
     1
  3
ACAD_XREC_ROUNDTRIP
360
27C
  0
DICTIONARY
  5
279
330
2E
100
AcDbDictionary
280
     1
281
     1
  3
ACAD_XREC_ROUNDTRIP
360
27A
  0
DICTIONARY
  5
287
330
35
100
AcDbDictionary
280
     1
281
     1
  3
ACAD_XREC_ROUNDTRIP
360
288
  0
DICTIONARY
  5
28F
330
39
100
AcDbDictionary
280
     1
281
     1
  3
ACAD_XREC_ROUNDTRIP
360
290
  0
DICTIONARY
  5
281
330
32
100
AcDbDictionary
280
     1
281
     1
  3
ACAD_XREC_ROUNDTRIP
360
282
  0
DICTIONARY
  5
285
330
34
100
AcDbDictionary
280
     1
281
     1
  3
ACAD_XREC_ROUNDTRIP
360
286
  0
DICTIONARY
  5
29F
330
41
100
AcDbDictionary
280
     1
281
     1
  3
ACAD_XREC_ROUNDTRIP
360
2A0
  0
DICTIONARY
  5
28D
330
38
100
AcDbDictionary
280
     1
281
     1
  3
ACAD_XREC_ROUNDTRIP
360
28E
  0
DICTIONARY
  5
271
330
2A
100
AcDbDictionary
280
     1
281
     1
  3
ACAD_XREC_ROUNDTRIP
360
272
  0
DICTIONARY
  5
273
330
2B
100
AcDbDictionary
280
     1
281
     1
  3
ACAD_XREC_ROUNDTRIP
360
274
  0
DICTIONARY
  5
275
330
2C
100
AcDbDictionary
280
     1
281
     1
  3
ACAD_XREC_ROUNDTRIP
360
276
  0
DICTIONARY
  5
277
330
2D
100
AcDbDictionary
280
     1
281
     1
  3
ACAD_XREC_ROUNDTRIP
360
278
  0
DICTIONARY
  5
27F
330
31
100
AcDbDictionary
280
     1
281
     1
  3
ACAD_XREC_ROUNDTRIP
360
280
  0
DICTIONARY
  5
29B
330
3F
100
AcDbDictionary
280
     1
281
     1
  3
ACAD_XREC_ROUNDTRIP
360
29C
  0
DICTIONARY
  5
28B
330
37
100
AcDbDictionary
280
     1
281
     1
  3
ACAD_XREC_ROUNDTRIP
360
28C
  0
DICTIONARY
  5
29D
330
40
100
AcDbDictionary
280
     1
281
     1
  3
ACAD_XREC_ROUNDTRIP
360
29E
  0
DICTIONARY
  5
283
330
33
100
AcDbDictionary
280
     1
281
     1
  3
ACAD_XREC_ROUNDTRIP
360
284
  0
DICTIONARY
  5
299
330
3E
100
AcDbDictionary
280
     1
281
     1
  3
ACAD_XREC_ROUNDTRIP
360
29A
  0
DICTIONARY
  5
297
330
3D
100
AcDbDictionary
280
     1
281
     1
  3
ACAD_XREC_ROUNDTRIP
360
298
  0
DICTIONARY
  5
291
330
3A
100
AcDbDictionary
280
     1
281
     1
  3
ACAD_XREC_ROUNDTRIP
360
292
  0
DICTIONARY
  5
293
330
3B
100
AcDbDictionary
280
     1
281
     1
  3
ACAD_XREC_ROUNDTRIP
360
294
  0
DICTIONARY
  5
289
330
36
100
AcDbDictionary
280
     1
281
     1
  3
ACAD_XREC_ROUNDTRIP
360
28A
  0
DICTIONARY
  5
27D
330
30
100
AcDbDictionary
280
     1
281
     1
  3
ACAD_XREC_ROUNDTRIP
360
27E
  0
DICTIONARY
  5
295
330
3C
100
AcDbDictionary
280
     1
281
     1
  3
ACAD_XREC_ROUNDTRIP
360
296
  0
XRECORD
  5
2A7
102
{ACAD_REACTORS
330
2A6
102
}
330
2A6
100
AcDbXrecord
280
     1
102
DISPLAYNAME
  1
Imperial24
102
FLAGS
 90
        0
  0
XRECORD
  5
1C
102
{ACAD_REACTORS
330
1A
102
}
330
1A
100
AcDbXrecord
280
     1
270
     1
271
     1
  0
XRECORD
  5
1B
102
{ACAD_REACTORS
330
1A
102
}
330
1A
100
AcDbXrecord
280
     1
270
     1
271
     1
  0
XRECORD
  5
1F
102
{ACAD_REACTORS
330
1A
102
}
330
1A
100
AcDbXrecord
280
     1
270
     1
271
     1
  0
XRECORD
  5
1E
102
{ACAD_REACTORS
330
1A
102
}
330
1A
100
AcDbXrecord
280
     1
270
     1
271
     1
  0
XRECORD
  5
20
102
{ACAD_REACTORS
330
1A
102
}
330
1A
100
AcDbXrecord
280
     1
270
     1
271
     1
  0
XRECORD
  5
1D
102
{ACAD_REACTORS
330
1A
102
}
330
1A
100
AcDbXrecord
280
     1
270
     1
271
     1
  0
XRECORD
  5
14
102
{ACAD_REACTORS
330
12
102
}
330
12
100
AcDbXrecord
280
     1
270
     1
271
     1
  0
XRECORD
  5
13
102
{ACAD_REACTORS
330
12
102
}
330
12
100
AcDbXrecord
280
     1
270
     1
271
     1
  0
XRECORD
  5
17
102
{ACAD_REACTORS
330
12
102
}
330
12
100
AcDbXrecord
280
     1
270
     1
271
     1
  0
XRECORD
  5
16
102
{ACAD_REACTORS
330
12
102
}
330
12
100
AcDbXrecord
280
     1
270
     1
271
     1
  0
XRECORD
  5
18
102
{ACAD_REACTORS
330
12
102
}
330
12
100
AcDbXrecord
280
     1
270
     1
271
     1
  0
XRECORD
  5
15
102
{ACAD_REACTORS
330
12
102
}
330
12
100
AcDbXrecord
280
     1
270
     1
271
     1
  0
XRECORD
  5
24
102
{ACAD_REACTORS
330
22
102
}
330
22
100
AcDbXrecord
280
     1
270
     1
271
     1
  0
XRECORD
  5
23
102
{ACAD_REACTORS
330
22
102
}
330
22
100
AcDbXrecord
280
     1
270
     1
271
     1
  0
XRECORD
  5
27
102
{ACAD_REACTORS
330
22
102
}
330
22
100
AcDbXrecord
280
     1
270
     1
271
     1
  0
XRECORD
  5
26
102
{ACAD_REACTORS
330
22
102
}
330
22
100
AcDbXrecord
280
     1
270
     1
271
     1
  0
XRECORD
  5
28
102
{ACAD_REACTORS
330
22
102
}
330
22
100
AcDbXrecord
280
     1
270
     1
271
     1
  0
XRECORD
  5
25
102
{ACAD_REACTORS
330
22
102
}
330
22
100
AcDbXrecord
280
     1
270
     1
271
     1
  0
XRECORD
  5
2A3
102
{ACAD_REACTORS
330
2A2
102
}
330
2A2
100
AcDbXrecord
280
     1
102
ACAD_ROUNDTRIP_2012_MLEADER_STYLE
298
     1
  0
XRECORD
  5
2A5
102
{ACAD_REACTORS
330
2A4
102
}
330
2A4
100
AcDbXrecord
280
     1
102
DISPLAYNAME
  1
Imperial24
102
FLAGS
 90
        0
  0
CELLSTYLEMAP
  5
26C
102
{ACAD_REACTORS
330
26B
102
}
330
26B
100
AcDbCellStyleMap
 90
        3
300
CELLSTYLE
  1
TABLEFORMAT_BEGIN
 90
        5
170
     1
 91
        0
 92
    32768
 62
   257
 93
        1
300
CONTENTFORMAT
  1
CONTENTFORMAT_BEGIN
 90
        0
 91
        0
 92
      512
 93
        0
300

 40
0.0
140
1.0
 94
        5
 62
     0
340
55
144
0.25
309
CONTENTFORMAT_END
171
     0
 94
        0
309
TABLEFORMAT_END
  1
CELLSTYLE_BEGIN
 90
        1
 91
        1
300
_TITLE
309
CELLSTYLE_END
300
CELLSTYLE
  1
TABLEFORMAT_BEGIN
 90
        5
170
     1
 91
        0
 92
        0
 62
   257
 93
        1
300
CONTENTFORMAT
  1
CONTENTFORMAT_BEGIN
 90
        0
 91
        0
 92
      512
 93
        0
300

 40
0.0
140
1.0
 94
        5
 62
     0
340
55
144
0.18
309
CONTENTFORMAT_END
171
     0
 94
        0
309
TABLEFORMAT_END
  1
CELLSTYLE_BEGIN
 90
        2
 91
        1
300
_HEADER
309
CELLSTYLE_END
300
CELLSTYLE
  1
TABLEFORMAT_BEGIN
 90
        5
170
     1
 91
        0
 92
        0
 62
   257
 93
        1
300
CONTENTFORMAT
  1
CONTENTFORMAT_BEGIN
 90
        0
 91
        0
 92
      512
 93
        0
300

 40
0.0
140
1.0
 94
        2
 62
     0
340
55
144
0.18
309
CONTENTFORMAT_END
171
     0
 94
        0
309
TABLEFORMAT_END
  1
CELLSTYLE_BEGIN
 90
        3
 91
        2
300
_DATA
309
CELLSTYLE_END
  0
XRECORD
  5
27C
102
{ACAD_REACTORS
330
27B
102
}
330
27B
100
AcDbXrecord
280
     1
102
RTVSPost2010Prop28
280
     1
102
RTVSPost2010PropOp28
 70
     1
102
RTVSPost2010Prop29
280
     1
102
RTVSPost2010PropOp29
 70
     1
102
RTVSPost2010Prop30
280
     0
102
RTVSPost2010PropOp30
 70
     1
102
RTVSPost2010Prop31
280
     0
102
RTVSPost2010PropOp31
 70
     1
102
RTVSPost2010Prop32
280
     0
102
RTVSPost2010PropOp32
 70
     1
102
RTVSPost2010Prop33
280
     0
102
RTVSPost2010PropOp33
 70
     1
102
RTVSPost2010Prop34
280
     0
102
RTVSPost2010PropOp34
 70
     1
102
RTVSPost2010Prop35
280
     0
102
RTVSPost2010PropOp35
 70
     1
102
RTVSPost2010Prop36
280
     0
102
RTVSPost2010PropOp36
 70
     1
102
RTVSPost2010Prop37
 90
       50
102
RTVSPost2010PropOp37
 70
     1
102
RTVSPost2010Prop38
140
0.0
102
RTVSPost2010PropOp38
 70
     1
102
RTVSPost2010Prop39
140
1.0
102
RTVSPost2010PropOp39
 70
     1
102
RTVSPost2010Prop40
 90
        0
102
RTVSPost2010PropOp40
 70
     1
102
RTVSPost2010Prop41ColorIndex
 90
       18
102
RTVSPost2010Prop41ColorRGB
 90
        0
102
RTVSPost2010PropOp41
 70
     1
102
RTVSPost2010Prop42
 90
       50
102
RTVSPost2010PropOp42
 70
     1
102
RTVSPost2010Prop43
 90
        3
102
RTVSPost2010PropOp43
 70
     1
102
RTVSPost2010Prop44ColorIndex
 90
        5
102
RTVSPost2010Prop44ColorRGB
 90
      255
102
RTVSPost2010PropOp44
 70
     1
102
RTVSPost2010Prop45
280
     0
102
RTVSPost2010PropOp45
 70
     1
102
RTVSPost2010Prop46
 90
       50
102
RTVSPost2010PropOp46
 70
     1
102
RTVSPost2010Prop47
 90
       50
102
RTVSPost2010PropOp47
 70
     1
102
RTVSPost2010Prop48
 90
       50
102
RTVSPost2010PropOp48
 70
     1
102
RTVSPost2010Prop49
280
     0
102
RTVSPost2010PropOp49
 70
     1
102
RTVSPost2010Prop50
 90
       50
102
RTVSPost2010PropOp50
 70
     1
102
RTVSPost2010Prop51ColorIndex
 90
      256
102
RTVSPost2010Prop51ColorRGB
 90
-16777216
102
RTVSPost2010PropOp51
 70
     0
102
RTVSPost2010Prop52
140
1.0
102
RTVSPost2010PropOp52
 70
     0
102
RTVSPost2010Prop53
 90
        2
102
RTVSPost2010PropOp53
 70
     1
102
RTVSPost2010Prop54
  1
strokes_ogs.tif
102
RTVSPost2010PropOp54
 70
     1
102
RTVSPost2010Prop55
280
     0
102
RTVSPost2010PropOp55
 70
     1
102
RTVSPost2010Prop56
140
1.0
102
RTVSPost2010PropOp56
 70
     1
102
RTVSPost2010Prop57
140
1.0
102
RTVSPost2010PropOp57
 70
     1
102
RTVSPropertyOp0
 70
     1
102
RTVSPropertyOp1
 70
     1
102
RTVSPropertyOp2
 70
     1
102
RTVSPropertyOp3
 70
     1
102
RTVSPropertyOp4
 70
     1
102
RTVSPropertyOp5
 70
     1
102
RTVSPropertyOp6
 70
     1
102
RTVSPropertyOp7
 70
     1
102
RTVSPropertyOp8
 70
     1
102
RTVSPropertyOp9
 70
     1
102
RTVSPropertyOp10
 70
     1
102
RTVSPropertyOp11
 70
     1
102
RTVSPropertyOp12
 70
     1
102
RTVSPropertyOp13
 70
     1
102
RTVSPropertyOp14
 70
     1
102
RTVSPropertyOp15
 70
     1
102
RTVSPropertyOp16
 70
     1
102
RTVSPropertyOp17
 70
     1
102
RTVSPropertyOp18
 70
     1
102
RTVSPropertyOp19
 70
     1
102
RTVSPropertyOp20
 70
     1
102
RTVSPropertyOp21
 70
     1
102
RTVSPropertyOp22
 70
     1
102
RTVSPropertyOp23
 70
     1
102
RTVSPropertyOp24
 70
     1
102
RTVSPropertyOp25
 70
     1
102
RTVSPropertyOp26
 70
     1
102
RTVSPropertyOp27
 70
     1
102
RTVSPropertyOp28
 70
     1
102
RTVSPropertyOp29
 70
     1
102
RTVSPropertyOp30
 70
     1
102
RTVSPropertyOp31
 70
     1
102
RTVSPropertyOp32
 70
     1
102
RTVSPropertyOp33
 70
     1
102
RTVSPropertyOp34
 70
     1
102
RTVSPropertyOp35
 70
     1
102
RTVSPropertyOp36
 70
     1
102
RTVSPropertyOp37
 70
     1
102
RTVSPropertyOp38
 70
     1
102
RTVSPropertyOp39
 70
     1
102
RTVSPropertyOp40
 70
     1
102
RTVSPropertyOp41
 70
     1
102
RTVSPropertyOp42
 70
     1
102
RTVSPropertyOp43
 70
     1
102
RTVSPropertyOp44
 70
     1
102
RTVSPropertyOp45
 70
     1
102
RTVSPropertyOp46
 70
     1
102
RTVSPropertyOp47
 70
     1
102
RTVSPropertyOp48
 70
     1
102
RTVSPropertyOp49
 70
     1
102
RTVSPropertyOp50
 70
     1
102
RTVSPropertyOp51
 70
     0
102
RTVSPropertyOp52
 70
     0
102
RTVSPropertyOp53
 70
     1
102
RTVSPropertyOp54
 70
     1
102
RTVSPropertyOp55
 70
     1
102
RTVSPropertyOp56
 70
     1
102
RTVSPropertyOp57
 70
     1
102
RTVSPropertyOp58
 70
     1
102
RTVSPropertyOp59
 70
     1
102
RTVSPropertyOp60
 70
     1
102
RTVSPropertyOp61
 70
     1
102
RTVSPropertyOp62
 70
     1
  0
XRECORD
  5
27A
102
{ACAD_REACTORS
330
279
102
}
330
279
100
AcDbXrecord
280
     1
102
RTVSPost2010Prop28
280
     0
102
RTVSPost2010PropOp28
 70
     1
102
RTVSPost2010Prop29
280
     1
102
RTVSPost2010PropOp29
 70
     1
102
RTVSPost2010Prop30
280
     1
102
RTVSPost2010PropOp30
 70
     1
102
RTVSPost2010Prop31
280
     0
102
RTVSPost2010PropOp31
 70
     1
102
RTVSPost2010Prop32
280
     0
102
RTVSPost2010PropOp32
 70
     1
102
RTVSPost2010Prop33
280
     0
102
RTVSPost2010PropOp33
 70
     1
102
RTVSPost2010Prop34
280
     0
102
RTVSPost2010PropOp34
 70
     1
102
RTVSPost2010Prop35
280
     0
102
RTVSPost2010PropOp35
 70
     1
102
RTVSPost2010Prop36
280
     0
102
RTVSPost2010PropOp36
 70
     1
102
RTVSPost2010Prop37
 90
       50
102
RTVSPost2010PropOp37
 70
     1
102
RTVSPost2010Prop38
140
0.0
102
RTVSPost2010PropOp38
 70
     1
102
RTVSPost2010Prop39
140
1.0
102
RTVSPost2010PropOp39
 70
     1
102
RTVSPost2010Prop40
 90
        0
102
RTVSPost2010PropOp40
 70
     1
102
RTVSPost2010Prop41ColorIndex
 90
       18
102
RTVSPost2010Prop41ColorRGB
 90
        0
102
RTVSPost2010PropOp41
 70
     1
102
RTVSPost2010Prop42
 90
       50
102
RTVSPost2010PropOp42
 70
     1
102
RTVSPost2010Prop43
 90
        3
102
RTVSPost2010PropOp43
 70
     1
102
RTVSPost2010Prop44ColorIndex
 90
        5
102
RTVSPost2010Prop44ColorRGB
 90
      255
102
RTVSPost2010PropOp44
 70
     1
102
RTVSPost2010Prop45
280
     0
102
RTVSPost2010PropOp45
 70
     1
102
RTVSPost2010Prop46
 90
       50
102
RTVSPost2010PropOp46
 70
     1
102
RTVSPost2010Prop47
 90
       50
102
RTVSPost2010PropOp47
 70
     1
102
RTVSPost2010Prop48
 90
       50
102
RTVSPost2010PropOp48
 70
     1
102
RTVSPost2010Prop49
280
     0
102
RTVSPost2010PropOp49
 70
     1
102
RTVSPost2010Prop50
 90
       50
102
RTVSPost2010PropOp50
 70
     1
102
RTVSPost2010Prop51ColorIndex
 90
      256
102
RTVSPost2010Prop51ColorRGB
 90
-16777216
102
RTVSPost2010PropOp51
 70
     0
102
RTVSPost2010Prop52
140
1.0
102
RTVSPost2010PropOp52
 70
     0
102
RTVSPost2010Prop53
 90
        2
102
RTVSPost2010PropOp53
 70
     1
102
RTVSPost2010Prop54
  1
strokes_ogs.tif
102
RTVSPost2010PropOp54
 70
     1
102
RTVSPost2010Prop55
280
     0
102
RTVSPost2010PropOp55
 70
     1
102
RTVSPost2010Prop56
140
1.0
102
RTVSPost2010PropOp56
 70
     1
102
RTVSPost2010Prop57
140
1.0
102
RTVSPost2010PropOp57
 70
     1
102
RTVSPropertyOp0
 70
     1
102
RTVSPropertyOp1
 70
     1
102
RTVSPropertyOp2
 70
     1
102
RTVSPropertyOp3
 70
     1
102
RTVSPropertyOp4
 70
     1
102
RTVSPropertyOp5
 70
     1
102
RTVSPropertyOp6
 70
     1
102
RTVSPropertyOp7
 70
     1
102
RTVSPropertyOp8
 70
     1
102
RTVSPropertyOp9
 70
     1
102
RTVSPropertyOp10
 70
     1
102
RTVSPropertyOp11
 70
     1
102
RTVSPropertyOp12
 70
     1
102
RTVSPropertyOp13
 70
     1
102
RTVSPropertyOp14
 70
     1
102
RTVSPropertyOp15
 70
     1
102
RTVSPropertyOp16
 70
     1
102
RTVSPropertyOp17
 70
     1
102
RTVSPropertyOp18
 70
     1
102
RTVSPropertyOp19
 70
     1
102
RTVSPropertyOp20
 70
     1
102
RTVSPropertyOp21
 70
     1
102
RTVSPropertyOp22
 70
     1
102
RTVSPropertyOp23
 70
     1
102
RTVSPropertyOp24
 70
     1
102
RTVSPropertyOp25
 70
     1
102
RTVSPropertyOp26
 70
     1
102
RTVSPropertyOp27
 70
     1
102
RTVSPropertyOp28
 70
     1
102
RTVSPropertyOp29
 70
     1
102
RTVSPropertyOp30
 70
     1
102
RTVSPropertyOp31
 70
     1
102
RTVSPropertyOp32
 70
     1
102
RTVSPropertyOp33
 70
     1
102
RTVSPropertyOp34
 70
     1
102
RTVSPropertyOp35
 70
     1
102
RTVSPropertyOp36
 70
     1
102
RTVSPropertyOp37
 70
     1
102
RTVSPropertyOp38
 70
     1
102
RTVSPropertyOp39
 70
     1
102
RTVSPropertyOp40
 70
     1
102
RTVSPropertyOp41
 70
     1
102
RTVSPropertyOp42
 70
     1
102
RTVSPropertyOp43
 70
     1
102
RTVSPropertyOp44
 70
     1
102
RTVSPropertyOp45
 70
     1
102
RTVSPropertyOp46
 70
     1
102
RTVSPropertyOp47
 70
     1
102
RTVSPropertyOp48
 70
     1
102
RTVSPropertyOp49
 70
     1
102
RTVSPropertyOp50
 70
     1
102
RTVSPropertyOp51
 70
     0
102
RTVSPropertyOp52
 70
     0
102
RTVSPropertyOp53
 70
     1
102
RTVSPropertyOp54
 70
     1
102
RTVSPropertyOp55
 70
     1
102
RTVSPropertyOp56
 70
     1
102
RTVSPropertyOp57
 70
     1
102
RTVSPropertyOp58
 70
     1
102
RTVSPropertyOp59
 70
     1
102
RTVSPropertyOp60
 70
     1
102
RTVSPropertyOp61
 70
     1
102
RTVSPropertyOp62
 70
     1
  0
XRECORD
  5
288
102
{ACAD_REACTORS
330
287
102
}
330
287
100
AcDbXrecord
280
     1
102
RTVSPost2010Prop28
280
     0
102
RTVSPost2010PropOp28
 70
     1
102
RTVSPost2010Prop29
280
     1
102
RTVSPost2010PropOp29
 70
     1
102
RTVSPost2010Prop30
280
     1
102
RTVSPost2010PropOp30
 70
     1
102
RTVSPost2010Prop31
280
     0
102
RTVSPost2010PropOp31
 70
     1
102
RTVSPost2010Prop32
280
     0
102
RTVSPost2010PropOp32
 70
     1
102
RTVSPost2010Prop33
280
     0
102
RTVSPost2010PropOp33
 70
     1
102
RTVSPost2010Prop34
280
     0
102
RTVSPost2010PropOp34
 70
     1
102
RTVSPost2010Prop35
280
     0
102
RTVSPost2010PropOp35
 70
     1
102
RTVSPost2010Prop36
280
     0
102
RTVSPost2010PropOp36
 70
     1
102
RTVSPost2010Prop37
 90
       50
102
RTVSPost2010PropOp37
 70
     1
102
RTVSPost2010Prop38
140
0.0
102
RTVSPost2010PropOp38
 70
     1
102
RTVSPost2010Prop39
140
1.0
102
RTVSPost2010PropOp39
 70
     1
102
RTVSPost2010Prop40
 90
        0
102
RTVSPost2010PropOp40
 70
     1
102
RTVSPost2010Prop41ColorIndex
 90
       18
102
RTVSPost2010Prop41ColorRGB
 90
        0
102
RTVSPost2010PropOp41
 70
     1
102
RTVSPost2010Prop42
 90
       50
102
RTVSPost2010PropOp42
 70
     1
102
RTVSPost2010Prop43
 90
        3
102
RTVSPost2010PropOp43
 70
     1
102
RTVSPost2010Prop44ColorIndex
 90
        5
102
RTVSPost2010Prop44ColorRGB
 90
      255
102
RTVSPost2010PropOp44
 70
     1
102
RTVSPost2010Prop45
280
     0
102
RTVSPost2010PropOp45
 70
     1
102
RTVSPost2010Prop46
 90
       50
102
RTVSPost2010PropOp46
 70
     1
102
RTVSPost2010Prop47
 90
       50
102
RTVSPost2010PropOp47
 70
     1
102
RTVSPost2010Prop48
 90
       50
102
RTVSPost2010PropOp48
 70
     1
102
RTVSPost2010Prop49
280
     0
102
RTVSPost2010PropOp49
 70
     1
102
RTVSPost2010Prop50
 90
       50
102
RTVSPost2010PropOp50
 70
     1
102
RTVSPost2010Prop51ColorIndex
 90
      256
102
RTVSPost2010Prop51ColorRGB
 90
-16777216
102
RTVSPost2010PropOp51
 70
     0
102
RTVSPost2010Prop52
140
1.0
102
RTVSPost2010PropOp52
 70
     0
102
RTVSPost2010Prop53
 90
        2
102
RTVSPost2010PropOp53
 70
     1
102
RTVSPost2010Prop54
  1
strokes_ogs.tif
102
RTVSPost2010PropOp54
 70
     1
102
RTVSPost2010Prop55
280
     0
102
RTVSPost2010PropOp55
 70
     1
102
RTVSPost2010Prop56
140
1.0
102
RTVSPost2010PropOp56
 70
     1
102
RTVSPost2010Prop57
140
1.0
102
RTVSPost2010PropOp57
 70
     1
102
RTVSPropertyOp0
 70
     1
102
RTVSPropertyOp1
 70
     1
102
RTVSPropertyOp2
 70
     1
102
RTVSPropertyOp3
 70
     1
102
RTVSPropertyOp4
 70
     1
102
RTVSPropertyOp5
 70
     1
102
RTVSPropertyOp6
 70
     1
102
RTVSPropertyOp7
 70
     1
102
RTVSPropertyOp8
 70
     1
102
RTVSPropertyOp9
 70
     1
102
RTVSPropertyOp10
 70
     1
102
RTVSPropertyOp11
 70
     1
102
RTVSPropertyOp12
 70
     1
102
RTVSPropertyOp13
 70
     1
102
RTVSPropertyOp14
 70
     1
102
RTVSPropertyOp15
 70
     1
102
RTVSPropertyOp16
 70
     1
102
RTVSPropertyOp17
 70
     1
102
RTVSPropertyOp18
 70
     1
102
RTVSPropertyOp19
 70
     1
102
RTVSPropertyOp20
 70
     1
102
RTVSPropertyOp21
 70
     1
102
RTVSPropertyOp22
 70
     1
102
RTVSPropertyOp23
 70
     1
102
RTVSPropertyOp24
 70
     1
102
RTVSPropertyOp25
 70
     1
102
RTVSPropertyOp26
 70
     1
102
RTVSPropertyOp27
 70
     1
102
RTVSPropertyOp28
 70
     1
102
RTVSPropertyOp29
 70
     1
102
RTVSPropertyOp30
 70
     1
102
RTVSPropertyOp31
 70
     1
102
RTVSPropertyOp32
 70
     1
102
RTVSPropertyOp33
 70
     1
102
RTVSPropertyOp34
 70
     1
102
RTVSPropertyOp35
 70
     1
102
RTVSPropertyOp36
 70
     1
102
RTVSPropertyOp37
 70
     1
102
RTVSPropertyOp38
 70
     1
102
RTVSPropertyOp39
 70
     1
102
RTVSPropertyOp40
 70
     1
102
RTVSPropertyOp41
 70
     1
102
RTVSPropertyOp42
 70
     1
102
RTVSPropertyOp43
 70
     1
102
RTVSPropertyOp44
 70
     1
102
RTVSPropertyOp45
 70
     1
102
RTVSPropertyOp46
 70
     1
102
RTVSPropertyOp47
 70
     1
102
RTVSPropertyOp48
 70
     1
102
RTVSPropertyOp49
 70
     1
102
RTVSPropertyOp50
 70
     1
102
RTVSPropertyOp51
 70
     0
102
RTVSPropertyOp52
 70
     0
102
RTVSPropertyOp53
 70
     1
102
RTVSPropertyOp54
 70
     1
102
RTVSPropertyOp55
 70
     1
102
RTVSPropertyOp56
 70
     1
102
RTVSPropertyOp57
 70
     1
102
RTVSPropertyOp58
 70
     1
102
RTVSPropertyOp59
 70
     1
102
RTVSPropertyOp60
 70
     1
102
RTVSPropertyOp61
 70
     1
102
RTVSPropertyOp62
 70
     1
  0
XRECORD
  5
290
102
{ACAD_REACTORS
330
28F
102
}
330
28F
100
AcDbXrecord
280
     1
102
RTVSPost2010Prop28
280
     0
102
RTVSPost2010PropOp28
 70
     1
102
RTVSPost2010Prop29
280
     1
102
RTVSPost2010PropOp29
 70
     1
102
RTVSPost2010Prop30
280
     1
102
RTVSPost2010PropOp30
 70
     1
102
RTVSPost2010Prop31
280
     0
102
RTVSPost2010PropOp31
 70
     1
102
RTVSPost2010Prop32
280
     0
102
RTVSPost2010PropOp32
 70
     1
102
RTVSPost2010Prop33
280
     0
102
RTVSPost2010PropOp33
 70
     1
102
RTVSPost2010Prop34
280
     0
102
RTVSPost2010PropOp34
 70
     1
102
RTVSPost2010Prop35
280
     0
102
RTVSPost2010PropOp35
 70
     1
102
RTVSPost2010Prop36
280
     0
102
RTVSPost2010PropOp36
 70
     1
102
RTVSPost2010Prop37
 90
       50
102
RTVSPost2010PropOp37
 70
     1
102
RTVSPost2010Prop38
140
0.0
102
RTVSPost2010PropOp38
 70
     1
102
RTVSPost2010Prop39
140
1.0
102
RTVSPost2010PropOp39
 70
     1
102
RTVSPost2010Prop40
 90
        0
102
RTVSPost2010PropOp40
 70
     1
102
RTVSPost2010Prop41ColorIndex
 90
       18
102
RTVSPost2010Prop41ColorRGB
 90
        0
102
RTVSPost2010PropOp41
 70
     1
102
RTVSPost2010Prop42
 90
       50
102
RTVSPost2010PropOp42
 70
     1
102
RTVSPost2010Prop43
 90
        3
102
RTVSPost2010PropOp43
 70
     1
102
RTVSPost2010Prop44ColorIndex
 90
        5
102
RTVSPost2010Prop44ColorRGB
 90
      255
102
RTVSPost2010PropOp44
 70
     1
102
RTVSPost2010Prop45
280
     0
102
RTVSPost2010PropOp45
 70
     1
102
RTVSPost2010Prop46
 90
       50
102
RTVSPost2010PropOp46
 70
     1
102
RTVSPost2010Prop47
 90
       50
102
RTVSPost2010PropOp47
 70
     1
102
RTVSPost2010Prop48
 90
       50
102
RTVSPost2010PropOp48
 70
     1
102
RTVSPost2010Prop49
280
     0
102
RTVSPost2010PropOp49
 70
     1
102
RTVSPost2010Prop50
 90
       50
102
RTVSPost2010PropOp50
 70
     1
102
RTVSPost2010Prop51ColorIndex
 90
      256
102
RTVSPost2010Prop51ColorRGB
 90
-16777216
102
RTVSPost2010PropOp51
 70
     0
102
RTVSPost2010Prop52
140
1.0
102
RTVSPost2010PropOp52
 70
     0
102
RTVSPost2010Prop53
 90
        2
102
RTVSPost2010PropOp53
 70
     1
102
RTVSPost2010Prop54
  1
strokes_ogs.tif
102
RTVSPost2010PropOp54
 70
     1
102
RTVSPost2010Prop55
280
     0
102
RTVSPost2010PropOp55
 70
     1
102
RTVSPost2010Prop56
140
1.0
102
RTVSPost2010PropOp56
 70
     1
102
RTVSPost2010Prop57
140
1.0
102
RTVSPost2010PropOp57
 70
     1
102
RTVSPropertyOp0
 70
     1
102
RTVSPropertyOp1
 70
     1
102
RTVSPropertyOp2
 70
     1
102
RTVSPropertyOp3
 70
     1
102
RTVSPropertyOp4
 70
     1
102
RTVSPropertyOp5
 70
     1
102
RTVSPropertyOp6
 70
     1
102
RTVSPropertyOp7
 70
     1
102
RTVSPropertyOp8
 70
     1
102
RTVSPropertyOp9
 70
     1
102
RTVSPropertyOp10
 70
     1
102
RTVSPropertyOp11
 70
     1
102
RTVSPropertyOp12
 70
     1
102
RTVSPropertyOp13
 70
     1
102
RTVSPropertyOp14
 70
     1
102
RTVSPropertyOp15
 70
     1
102
RTVSPropertyOp16
 70
     1
102
RTVSPropertyOp17
 70
     1
102
RTVSPropertyOp18
 70
     1
102
RTVSPropertyOp19
 70
     1
102
RTVSPropertyOp20
 70
     1
102
RTVSPropertyOp21
 70
     1
102
RTVSPropertyOp22
 70
     1
102
RTVSPropertyOp23
 70
     1
102
RTVSPropertyOp24
 70
     1
102
RTVSPropertyOp25
 70
     1
102
RTVSPropertyOp26
 70
     1
102
RTVSPropertyOp27
 70
     1
102
RTVSPropertyOp28
 70
     1
102
RTVSPropertyOp29
 70
     1
102
RTVSPropertyOp30
 70
     1
102
RTVSPropertyOp31
 70
     1
102
RTVSPropertyOp32
 70
     1
102
RTVSPropertyOp33
 70
     1
102
RTVSPropertyOp34
 70
     1
102
RTVSPropertyOp35
 70
     1
102
RTVSPropertyOp36
 70
     1
102
RTVSPropertyOp37
 70
     1
102
RTVSPropertyOp38
 70
     1
102
RTVSPropertyOp39
 70
     1
102
RTVSPropertyOp40
 70
     1
102
RTVSPropertyOp41
 70
     1
102
RTVSPropertyOp42
 70
     1
102
RTVSPropertyOp43
 70
     1
102
RTVSPropertyOp44
 70
     1
102
RTVSPropertyOp45
 70
     1
102
RTVSPropertyOp46
 70
     1
102
RTVSPropertyOp47
 70
     1
102
RTVSPropertyOp48
 70
     1
102
RTVSPropertyOp49
 70
     1
102
RTVSPropertyOp50
 70
     1
102
RTVSPropertyOp51
 70
     0
102
RTVSPropertyOp52
 70
     0
102
RTVSPropertyOp53
 70
     1
102
RTVSPropertyOp54
 70
     1
102
RTVSPropertyOp55
 70
     1
102
RTVSPropertyOp56
 70
     1
102
RTVSPropertyOp57
 70
     1
102
RTVSPropertyOp58
 70
     1
102
RTVSPropertyOp59
 70
     1
102
RTVSPropertyOp60
 70
     1
102
RTVSPropertyOp61
 70
     1
102
RTVSPropertyOp62
 70
     1
  0
XRECORD
  5
282
102
{ACAD_REACTORS
330
281
102
}
330
281
100
AcDbXrecord
280
     1
102
RTVSPost2010Prop28
280
     0
102
RTVSPost2010PropOp28
 70
     1
102
RTVSPost2010Prop29
280
     1
102
RTVSPost2010PropOp29
 70
     1
102
RTVSPost2010Prop30
280
     1
102
RTVSPost2010PropOp30
 70
     1
102
RTVSPost2010Prop31
280
     0
102
RTVSPost2010PropOp31
 70
     1
102
RTVSPost2010Prop32
280
     0
102
RTVSPost2010PropOp32
 70
     1
102
RTVSPost2010Prop33
280
     0
102
RTVSPost2010PropOp33
 70
     1
102
RTVSPost2010Prop34
280
     0
102
RTVSPost2010PropOp34
 70
     1
102
RTVSPost2010Prop35
280
     0
102
RTVSPost2010PropOp35
 70
     1
102
RTVSPost2010Prop36
280
     0
102
RTVSPost2010PropOp36
 70
     1
102
RTVSPost2010Prop37
 90
       50
102
RTVSPost2010PropOp37
 70
     1
102
RTVSPost2010Prop38
140
0.0
102
RTVSPost2010PropOp38
 70
     1
102
RTVSPost2010Prop39
140
1.0
102
RTVSPost2010PropOp39
 70
     1
102
RTVSPost2010Prop40
 90
        0
102
RTVSPost2010PropOp40
 70
     1
102
RTVSPost2010Prop41ColorIndex
 90
       18
102
RTVSPost2010Prop41ColorRGB
 90
        0
102
RTVSPost2010PropOp41
 70
     1
102
RTVSPost2010Prop42
 90
       50
102
RTVSPost2010PropOp42
 70
     1
102
RTVSPost2010Prop43
 90
        3
102
RTVSPost2010PropOp43
 70
     1
102
RTVSPost2010Prop44ColorIndex
 90
        5
102
RTVSPost2010Prop44ColorRGB
 90
      255
102
RTVSPost2010PropOp44
 70
     1
102
RTVSPost2010Prop45
280
     0
102
RTVSPost2010PropOp45
 70
     1
102
RTVSPost2010Prop46
 90
       50
102
RTVSPost2010PropOp46
 70
     1
102
RTVSPost2010Prop47
 90
       50
102
RTVSPost2010PropOp47
 70
     1
102
RTVSPost2010Prop48
 90
       50
102
RTVSPost2010PropOp48
 70
     1
102
RTVSPost2010Prop49
280
     0
102
RTVSPost2010PropOp49
 70
     1
102
RTVSPost2010Prop50
 90
       50
102
RTVSPost2010PropOp50
 70
     1
102
RTVSPost2010Prop51ColorIndex
 90
      256
102
RTVSPost2010Prop51ColorRGB
 90
-16777216
102
RTVSPost2010PropOp51
 70
     0
102
RTVSPost2010Prop52
140
1.0
102
RTVSPost2010PropOp52
 70
     0
102
RTVSPost2010Prop53
 90
        2
102
RTVSPost2010PropOp53
 70
     1
102
RTVSPost2010Prop54
  1
strokes_ogs.tif
102
RTVSPost2010PropOp54
 70
     1
102
RTVSPost2010Prop55
280
     0
102
RTVSPost2010PropOp55
 70
     1
102
RTVSPost2010Prop56
140
1.0
102
RTVSPost2010PropOp56
 70
     1
102
RTVSPost2010Prop57
140
1.0
102
RTVSPost2010PropOp57
 70
     1
102
RTVSPropertyOp0
 70
     1
102
RTVSPropertyOp1
 70
     1
102
RTVSPropertyOp2
 70
     1
102
RTVSPropertyOp3
 70
     1
102
RTVSPropertyOp4
 70
     1
102
RTVSPropertyOp5
 70
     1
102
RTVSPropertyOp6
 70
     1
102
RTVSPropertyOp7
 70
     1
102
RTVSPropertyOp8
 70
     1
102
RTVSPropertyOp9
 70
     1
102
RTVSPropertyOp10
 70
     1
102
RTVSPropertyOp11
 70
     1
102
RTVSPropertyOp12
 70
     1
102
RTVSPropertyOp13
 70
     1
102
RTVSPropertyOp14
 70
     1
102
RTVSPropertyOp15
 70
     1
102
RTVSPropertyOp16
 70
     1
102
RTVSPropertyOp17
 70
     1
102
RTVSPropertyOp18
 70
     1
102
RTVSPropertyOp19
 70
     1
102
RTVSPropertyOp20
 70
     1
102
RTVSPropertyOp21
 70
     1
102
RTVSPropertyOp22
 70
     1
102
RTVSPropertyOp23
 70
     1
102
RTVSPropertyOp24
 70
     1
102
RTVSPropertyOp25
 70
     1
102
RTVSPropertyOp26
 70
     1
102
RTVSPropertyOp27
 70
     1
102
RTVSPropertyOp28
 70
     1
102
RTVSPropertyOp29
 70
     1
102
RTVSPropertyOp30
 70
     1
102
RTVSPropertyOp31
 70
     1
102
RTVSPropertyOp32
 70
     1
102
RTVSPropertyOp33
 70
     1
102
RTVSPropertyOp34
 70
     1
102
RTVSPropertyOp35
 70
     1
102
RTVSPropertyOp36
 70
     1
102
RTVSPropertyOp37
 70
     1
102
RTVSPropertyOp38
 70
     1
102
RTVSPropertyOp39
 70
     1
102
RTVSPropertyOp40
 70
     1
102
RTVSPropertyOp41
 70
     1
102
RTVSPropertyOp42
 70
     1
102
RTVSPropertyOp43
 70
     1
102
RTVSPropertyOp44
 70
     1
102
RTVSPropertyOp45
 70
     1
102
RTVSPropertyOp46
 70
     1
102
RTVSPropertyOp47
 70
     1
102
RTVSPropertyOp48
 70
     1
102
RTVSPropertyOp49
 70
     1
102
RTVSPropertyOp50
 70
     1
102
RTVSPropertyOp51
 70
     0
102
RTVSPropertyOp52
 70
     0
102
RTVSPropertyOp53
 70
     1
102
RTVSPropertyOp54
 70
     1
102
RTVSPropertyOp55
 70
     1
102
RTVSPropertyOp56
 70
     1
102
RTVSPropertyOp57
 70
     1
102
RTVSPropertyOp58
 70
     1
102
RTVSPropertyOp59
 70
     1
102
RTVSPropertyOp60
 70
     1
102
RTVSPropertyOp61
 70
     1
102
RTVSPropertyOp62
 70
     1
  0
XRECORD
  5
286
102
{ACAD_REACTORS
330
285
102
}
330
285
100
AcDbXrecord
280
     1
102
RTVSPost2010Prop28
280
     0
102
RTVSPost2010PropOp28
 70
     1
102
RTVSPost2010Prop29
280
     1
102
RTVSPost2010PropOp29
 70
     1
102
RTVSPost2010Prop30
280
     1
102
RTVSPost2010PropOp30
 70
     1
102
RTVSPost2010Prop31
280
     0
102
RTVSPost2010PropOp31
 70
     1
102
RTVSPost2010Prop32
280
     0
102
RTVSPost2010PropOp32
 70
     1
102
RTVSPost2010Prop33
280
     0
102
RTVSPost2010PropOp33
 70
     1
102
RTVSPost2010Prop34
280
     0
102
RTVSPost2010PropOp34
 70
     1
102
RTVSPost2010Prop35
280
     0
102
RTVSPost2010PropOp35
 70
     1
102
RTVSPost2010Prop36
280
     0
102
RTVSPost2010PropOp36
 70
     1
102
RTVSPost2010Prop37
 90
       50
102
RTVSPost2010PropOp37
 70
     1
102
RTVSPost2010Prop38
140
0.0
102
RTVSPost2010PropOp38
 70
     1
102
RTVSPost2010Prop39
140
1.0
102
RTVSPost2010PropOp39
 70
     1
102
RTVSPost2010Prop40
 90
        0
102
RTVSPost2010PropOp40
 70
     1
102
RTVSPost2010Prop41ColorIndex
 90
       18
102
RTVSPost2010Prop41ColorRGB
 90
        0
102
RTVSPost2010PropOp41
 70
     1
102
RTVSPost2010Prop42
 90
       50
102
RTVSPost2010PropOp42
 70
     1
102
RTVSPost2010Prop43
 90
        3
102
RTVSPost2010PropOp43
 70
     1
102
RTVSPost2010Prop44ColorIndex
 90
        5
102
RTVSPost2010Prop44ColorRGB
 90
      255
102
RTVSPost2010PropOp44
 70
     1
102
RTVSPost2010Prop45
280
     0
102
RTVSPost2010PropOp45
 70
     1
102
RTVSPost2010Prop46
 90
       50
102
RTVSPost2010PropOp46
 70
     1
102
RTVSPost2010Prop47
 90
       50
102
RTVSPost2010PropOp47
 70
     1
102
RTVSPost2010Prop48
 90
       50
102
RTVSPost2010PropOp48
 70
     1
102
RTVSPost2010Prop49
280
     0
102
RTVSPost2010PropOp49
 70
     1
102
RTVSPost2010Prop50
 90
       50
102
RTVSPost2010PropOp50
 70
     1
102
RTVSPost2010Prop51ColorIndex
 90
      256
102
RTVSPost2010Prop51ColorRGB
 90
-16777216
102
RTVSPost2010PropOp51
 70
     0
102
RTVSPost2010Prop52
140
1.0
102
RTVSPost2010PropOp52
 70
     0
102
RTVSPost2010Prop53
 90
        2
102
RTVSPost2010PropOp53
 70
     1
102
RTVSPost2010Prop54
  1
strokes_ogs.tif
102
RTVSPost2010PropOp54
 70
     1
102
RTVSPost2010Prop55
280
     0
102
RTVSPost2010PropOp55
 70
     1
102
RTVSPost2010Prop56
140
1.0
102
RTVSPost2010PropOp56
 70
     1
102
RTVSPost2010Prop57
140
1.0
102
RTVSPost2010PropOp57
 70
     1
102
RTVSPropertyOp0
 70
     1
102
RTVSPropertyOp1
 70
     1
102
RTVSPropertyOp2
 70
     1
102
RTVSPropertyOp3
 70
     1
102
RTVSPropertyOp4
 70
     1
102
RTVSPropertyOp5
 70
     1
102
RTVSPropertyOp6
 70
     1
102
RTVSPropertyOp7
 70
     1
102
RTVSPropertyOp8
 70
     1
102
RTVSPropertyOp9
 70
     1
102
RTVSPropertyOp10
 70
     1
102
RTVSPropertyOp11
 70
     1
102
RTVSPropertyOp12
 70
     1
102
RTVSPropertyOp13
 70
     1
102
RTVSPropertyOp14
 70
     1
102
RTVSPropertyOp15
 70
     1
102
RTVSPropertyOp16
 70
     1
102
RTVSPropertyOp17
 70
     1
102
RTVSPropertyOp18
 70
     1
102
RTVSPropertyOp19
 70
     1
102
RTVSPropertyOp20
 70
     1
102
RTVSPropertyOp21
 70
     1
102
RTVSPropertyOp22
 70
     1
102
RTVSPropertyOp23
 70
     1
102
RTVSPropertyOp24
 70
     1
102
RTVSPropertyOp25
 70
     1
102
RTVSPropertyOp26
 70
     1
102
RTVSPropertyOp27
 70
     1
102
RTVSPropertyOp28
 70
     1
102
RTVSPropertyOp29
 70
     1
102
RTVSPropertyOp30
 70
     1
102
RTVSPropertyOp31
 70
     1
102
RTVSPropertyOp32
 70
     1
102
RTVSPropertyOp33
 70
     1
102
RTVSPropertyOp34
 70
     1
102
RTVSPropertyOp35
 70
     1
102
RTVSPropertyOp36
 70
     1
102
RTVSPropertyOp37
 70
     1
102
RTVSPropertyOp38
 70
     1
102
RTVSPropertyOp39
 70
     1
102
RTVSPropertyOp40
 70
     1
102
RTVSPropertyOp41
 70
     1
102
RTVSPropertyOp42
 70
     1
102
RTVSPropertyOp43
 70
     1
102
RTVSPropertyOp44
 70
     1
102
RTVSPropertyOp45
 70
     1
102
RTVSPropertyOp46
 70
     1
102
RTVSPropertyOp47
 70
     1
102
RTVSPropertyOp48
 70
     1
102
RTVSPropertyOp49
 70
     1
102
RTVSPropertyOp50
 70
     1
102
RTVSPropertyOp51
 70
     0
102
RTVSPropertyOp52
 70
     0
102
RTVSPropertyOp53
 70
     1
102
RTVSPropertyOp54
 70
     1
102
RTVSPropertyOp55
 70
     1
102
RTVSPropertyOp56
 70
     1
102
RTVSPropertyOp57
 70
     1
102
RTVSPropertyOp58
 70
     1
102
RTVSPropertyOp59
 70
     1
102
RTVSPropertyOp60
 70
     1
102
RTVSPropertyOp61
 70
     1
102
RTVSPropertyOp62
 70
     1
  0
XRECORD
  5
2A0
102
{ACAD_REACTORS
330
29F
102
}
330
29F
100
AcDbXrecord
280
     1
102
RTVSPost2010Prop28
280
     0
102
RTVSPost2010PropOp28
 70
     0
102
RTVSPost2010Prop29
280
     1
102
RTVSPost2010PropOp29
 70
     0
102
RTVSPost2010Prop30
280
     1
102
RTVSPost2010PropOp30
 70
     0
102
RTVSPost2010Prop31
280
     0
102
RTVSPost2010PropOp31
 70
     0
102
RTVSPost2010Prop32
280
     0
102
RTVSPost2010PropOp32
 70
     0
102
RTVSPost2010Prop33
280
     0
102
RTVSPost2010PropOp33
 70
     0
102
RTVSPost2010Prop34
280
     0
102
RTVSPost2010PropOp34
 70
     0
102
RTVSPost2010Prop35
280
     0
102
RTVSPost2010PropOp35
 70
     0
102
RTVSPost2010Prop36
280
     0
102
RTVSPost2010PropOp36
 70
     0
102
RTVSPost2010Prop37
 90
       50
102
RTVSPost2010PropOp37
 70
     0
102
RTVSPost2010Prop38
140
0.0
102
RTVSPost2010PropOp38
 70
     0
102
RTVSPost2010Prop39
140
1.0
102
RTVSPost2010PropOp39
 70
     0
102
RTVSPost2010Prop40
 90
        0
102
RTVSPost2010PropOp40
 70
     0
102
RTVSPost2010Prop41ColorIndex
 90
       18
102
RTVSPost2010Prop41ColorRGB
 90
        0
102
RTVSPost2010PropOp41
 70
     0
102
RTVSPost2010Prop42
 90
       50
102
RTVSPost2010PropOp42
 70
     0
102
RTVSPost2010Prop43
 90
        3
102
RTVSPost2010PropOp43
 70
     0
102
RTVSPost2010Prop44ColorIndex
 90
        5
102
RTVSPost2010Prop44ColorRGB
 90
      255
102
RTVSPost2010PropOp44
 70
     0
102
RTVSPost2010Prop45
280
     0
102
RTVSPost2010PropOp45
 70
     0
102
RTVSPost2010Prop46
 90
       50
102
RTVSPost2010PropOp46
 70
     0
102
RTVSPost2010Prop47
 90
       50
102
RTVSPost2010PropOp47
 70
     0
102
RTVSPost2010Prop48
 90
       50
102
RTVSPost2010PropOp48
 70
     0
102
RTVSPost2010Prop49
280
     0
102
RTVSPost2010PropOp49
 70
     0
102
RTVSPost2010Prop50
 90
       50
102
RTVSPost2010PropOp50
 70
     0
102
RTVSPost2010Prop51ColorIndex
 90
      256
102
RTVSPost2010Prop51ColorRGB
 90
-16777216
102
RTVSPost2010PropOp51
 70
     0
102
RTVSPost2010Prop52
140
1.0
102
RTVSPost2010PropOp52
 70
     0
102
RTVSPost2010Prop53
 90
        2
102
RTVSPost2010PropOp53
 70
     0
102
RTVSPost2010Prop54
  1
strokes_ogs.tif
102
RTVSPost2010PropOp54
 70
     0
102
RTVSPost2010Prop55
280
     0
102
RTVSPost2010PropOp55
 70
     0
102
RTVSPost2010Prop56
140
1.0
102
RTVSPost2010PropOp56
 70
     0
102
RTVSPost2010Prop57
140
1.0
102
RTVSPost2010PropOp57
 70
     0
102
RTVSPropertyOp0
 70
     0
102
RTVSPropertyOp1
 70
     0
102
RTVSPropertyOp2
 70
     0
102
RTVSPropertyOp3
 70
     0
102
RTVSPropertyOp4
 70
     0
102
RTVSPropertyOp5
 70
     0
102
RTVSPropertyOp6
 70
     0
102
RTVSPropertyOp7
 70
     0
102
RTVSPropertyOp8
 70
     0
102
RTVSPropertyOp9
 70
     0
102
RTVSPropertyOp10
 70
     0
102
RTVSPropertyOp11
 70
     0
102
RTVSPropertyOp12
 70
     0
102
RTVSPropertyOp13
 70
     0
102
RTVSPropertyOp14
 70
     2
102
RTVSPropertyOp15
 70
     0
102
RTVSPropertyOp16
 70
     0
102
RTVSPropertyOp17
 70
     0
102
RTVSPropertyOp18
 70
     0
102
RTVSPropertyOp19
 70
     0
102
RTVSPropertyOp20
 70
     0
102
RTVSPropertyOp21
 70
     0
102
RTVSPropertyOp22
 70
     0
102
RTVSPropertyOp23
 70
     0
102
RTVSPropertyOp24
 70
     0
102
RTVSPropertyOp25
 70
     0
102
RTVSPropertyOp26
 70
     0
102
RTVSPropertyOp27
 70
     0
102
RTVSPropertyOp28
 70
     0
102
RTVSPropertyOp29
 70
     0
102
RTVSPropertyOp30
 70
     0
102
RTVSPropertyOp31
 70
     0
102
RTVSPropertyOp32
 70
     0
102
RTVSPropertyOp33
 70
     0
102
RTVSPropertyOp34
 70
     0
102
RTVSPropertyOp35
 70
     0
102
RTVSPropertyOp36
 70
     0
102
RTVSPropertyOp37
 70
     0
102
RTVSPropertyOp38
 70
     0
102
RTVSPropertyOp39
 70
     0
102
RTVSPropertyOp40
 70
     0
102
RTVSPropertyOp41
 70
     0
102
RTVSPropertyOp42
 70
     0
102
RTVSPropertyOp43
 70
     0
102
RTVSPropertyOp44
 70
     0
102
RTVSPropertyOp45
 70
     0
102
RTVSPropertyOp46
 70
     0
102
RTVSPropertyOp47
 70
     0
102
RTVSPropertyOp48
 70
     0
102
RTVSPropertyOp49
 70
     0
102
RTVSPropertyOp50
 70
     0
102
RTVSPropertyOp51
 70
     0
102
RTVSPropertyOp52
 70
     0
102
RTVSPropertyOp53
 70
     0
102
RTVSPropertyOp54
 70
     0
102
RTVSPropertyOp55
 70
     0
102
RTVSPropertyOp56
 70
     0
102
RTVSPropertyOp57
 70
     0
102
RTVSPropertyOp58
 70
     0
102
RTVSPropertyOp59
 70
     0
102
RTVSPropertyOp60
 70
     0
102
RTVSPropertyOp61
 70
     0
102
RTVSPropertyOp62
 70
     0
  0
XRECORD
  5
28E
102
{ACAD_REACTORS
330
28D
102
}
330
28D
100
AcDbXrecord
280
     1
102
RTVSPost2010Prop28
280
     0
102
RTVSPost2010PropOp28
 70
     1
102
RTVSPost2010Prop29
280
     1
102
RTVSPost2010PropOp29
 70
     1
102
RTVSPost2010Prop30
280
     1
102
RTVSPost2010PropOp30
 70
     1
102
RTVSPost2010Prop31
280
     0
102
RTVSPost2010PropOp31
 70
     1
102
RTVSPost2010Prop32
280
     0
102
RTVSPost2010PropOp32
 70
     1
102
RTVSPost2010Prop33
280
     0
102
RTVSPost2010PropOp33
 70
     1
102
RTVSPost2010Prop34
280
     0
102
RTVSPost2010PropOp34
 70
     1
102
RTVSPost2010Prop35
280
     0
102
RTVSPost2010PropOp35
 70
     1
102
RTVSPost2010Prop36
280
     0
102
RTVSPost2010PropOp36
 70
     1
102
RTVSPost2010Prop37
 90
       50
102
RTVSPost2010PropOp37
 70
     1
102
RTVSPost2010Prop38
140
0.0
102
RTVSPost2010PropOp38
 70
     1
102
RTVSPost2010Prop39
140
1.0
102
RTVSPost2010PropOp39
 70
     1
102
RTVSPost2010Prop40
 90
        0
102
RTVSPost2010PropOp40
 70
     1
102
RTVSPost2010Prop41ColorIndex
 90
       18
102
RTVSPost2010Prop41ColorRGB
 90
        0
102
RTVSPost2010PropOp41
 70
     1
102
RTVSPost2010Prop42
 90
       50
102
RTVSPost2010PropOp42
 70
     1
102
RTVSPost2010Prop43
 90
        3
102
RTVSPost2010PropOp43
 70
     1
102
RTVSPost2010Prop44ColorIndex
 90
        5
102
RTVSPost2010Prop44ColorRGB
 90
      255
102
RTVSPost2010PropOp44
 70
     1
102
RTVSPost2010Prop45
280
     0
102
RTVSPost2010PropOp45
 70
     1
102
RTVSPost2010Prop46
 90
       50
102
RTVSPost2010PropOp46
 70
     1
102
RTVSPost2010Prop47
 90
       50
102
RTVSPost2010PropOp47
 70
     1
102
RTVSPost2010Prop48
 90
       50
102
RTVSPost2010PropOp48
 70
     1
102
RTVSPost2010Prop49
280
     0
102
RTVSPost2010PropOp49
 70
     1
102
RTVSPost2010Prop50
 90
       50
102
RTVSPost2010PropOp50
 70
     1
102
RTVSPost2010Prop51ColorIndex
 90
      256
102
RTVSPost2010Prop51ColorRGB
 90
-16777216
102
RTVSPost2010PropOp51
 70
     0
102
RTVSPost2010Prop52
140
1.0
102
RTVSPost2010PropOp52
 70
     0
102
RTVSPost2010Prop53
 90
        2
102
RTVSPost2010PropOp53
 70
     1
102
RTVSPost2010Prop54
  1
strokes_ogs.tif
102
RTVSPost2010PropOp54
 70
     1
102
RTVSPost2010Prop55
280
     0
102
RTVSPost2010PropOp55
 70
     1
102
RTVSPost2010Prop56
140
1.0
102
RTVSPost2010PropOp56
 70
     1
102
RTVSPost2010Prop57
140
1.0
102
RTVSPost2010PropOp57
 70
     1
102
RTVSPropertyOp0
 70
     1
102
RTVSPropertyOp1
 70
     1
102
RTVSPropertyOp2
 70
     1
102
RTVSPropertyOp3
 70
     1
102
RTVSPropertyOp4
 70
     1
102
RTVSPropertyOp5
 70
     1
102
RTVSPropertyOp6
 70
     1
102
RTVSPropertyOp7
 70
     1
102
RTVSPropertyOp8
 70
     1
102
RTVSPropertyOp9
 70
     1
102
RTVSPropertyOp10
 70
     1
102
RTVSPropertyOp11
 70
     1
102
RTVSPropertyOp12
 70
     1
102
RTVSPropertyOp13
 70
     1
102
RTVSPropertyOp14
 70
     1
102
RTVSPropertyOp15
 70
     1
102
RTVSPropertyOp16
 70
     1
102
RTVSPropertyOp17
 70
     1
102
RTVSPropertyOp18
 70
     1
102
RTVSPropertyOp19
 70
     1
102
RTVSPropertyOp20
 70
     1
102
RTVSPropertyOp21
 70
     1
102
RTVSPropertyOp22
 70
     1
102
RTVSPropertyOp23
 70
     1
102
RTVSPropertyOp24
 70
     1
102
RTVSPropertyOp25
 70
     1
102
RTVSPropertyOp26
 70
     1
102
RTVSPropertyOp27
 70
     1
102
RTVSPropertyOp28
 70
     1
102
RTVSPropertyOp29
 70
     1
102
RTVSPropertyOp30
 70
     1
102
RTVSPropertyOp31
 70
     1
102
RTVSPropertyOp32
 70
     1
102
RTVSPropertyOp33
 70
     1
102
RTVSPropertyOp34
 70
     1
102
RTVSPropertyOp35
 70
     1
102
RTVSPropertyOp36
 70
     1
102
RTVSPropertyOp37
 70
     1
102
RTVSPropertyOp38
 70
     1
102
RTVSPropertyOp39
 70
     1
102
RTVSPropertyOp40
 70
     1
102
RTVSPropertyOp41
 70
     1
102
RTVSPropertyOp42
 70
     1
102
RTVSPropertyOp43
 70
     1
102
RTVSPropertyOp44
 70
     1
102
RTVSPropertyOp45
 70
     1
102
RTVSPropertyOp46
 70
     1
102
RTVSPropertyOp47
 70
     1
102
RTVSPropertyOp48
 70
     1
102
RTVSPropertyOp49
 70
     1
102
RTVSPropertyOp50
 70
     1
102
RTVSPropertyOp51
 70
     0
102
RTVSPropertyOp52
 70
     0
102
RTVSPropertyOp53
 70
     1
102
RTVSPropertyOp54
 70
     1
102
RTVSPropertyOp55
 70
     1
102
RTVSPropertyOp56
 70
     1
102
RTVSPropertyOp57
 70
     1
102
RTVSPropertyOp58
 70
     1
102
RTVSPropertyOp59
 70
     1
102
RTVSPropertyOp60
 70
     1
102
RTVSPropertyOp61
 70
     1
102
RTVSPropertyOp62
 70
     1
  0
XRECORD
  5
272
102
{ACAD_REACTORS
330
271
102
}
330
271
100
AcDbXrecord
280
     1
102
RTVSPost2010Prop28
280
     0
102
RTVSPost2010PropOp28
 70
     1
102
RTVSPost2010Prop29
280
     1
102
RTVSPost2010PropOp29
 70
     1
102
RTVSPost2010Prop30
280
     1
102
RTVSPost2010PropOp30
 70
     1
102
RTVSPost2010Prop31
280
     0
102
RTVSPost2010PropOp31
 70
     1
102
RTVSPost2010Prop32
280
     0
102
RTVSPost2010PropOp32
 70
     1
102
RTVSPost2010Prop33
280
     0
102
RTVSPost2010PropOp33
 70
     1
102
RTVSPost2010Prop34
280
     0
102
RTVSPost2010PropOp34
 70
     1
102
RTVSPost2010Prop35
280
     0
102
RTVSPost2010PropOp35
 70
     1
102
RTVSPost2010Prop36
280
     0
102
RTVSPost2010PropOp36
 70
     1
102
RTVSPost2010Prop37
 90
       50
102
RTVSPost2010PropOp37
 70
     1
102
RTVSPost2010Prop38
140
0.0
102
RTVSPost2010PropOp38
 70
     1
102
RTVSPost2010Prop39
140
1.0
102
RTVSPost2010PropOp39
 70
     1
102
RTVSPost2010Prop40
 90
        0
102
RTVSPost2010PropOp40
 70
     1
102
RTVSPost2010Prop41ColorIndex
 90
       18
102
RTVSPost2010Prop41ColorRGB
 90
        0
102
RTVSPost2010PropOp41
 70
     1
102
RTVSPost2010Prop42
 90
       50
102
RTVSPost2010PropOp42
 70
     1
102
RTVSPost2010Prop43
 90
        3
102
RTVSPost2010PropOp43
 70
     1
102
RTVSPost2010Prop44ColorIndex
 90
        5
102
RTVSPost2010Prop44ColorRGB
 90
      255
102
RTVSPost2010PropOp44
 70
     1
102
RTVSPost2010Prop45
280
     0
102
RTVSPost2010PropOp45
 70
     1
102
RTVSPost2010Prop46
 90
       50
102
RTVSPost2010PropOp46
 70
     1
102
RTVSPost2010Prop47
 90
       50
102
RTVSPost2010PropOp47
 70
     1
102
RTVSPost2010Prop48
 90
       50
102
RTVSPost2010PropOp48
 70
     1
102
RTVSPost2010Prop49
280
     0
102
RTVSPost2010PropOp49
 70
     1
102
RTVSPost2010Prop50
 90
       50
102
RTVSPost2010PropOp50
 70
     1
102
RTVSPost2010Prop51ColorIndex
 90
      256
102
RTVSPost2010Prop51ColorRGB
 90
-16777216
102
RTVSPost2010PropOp51
 70
     0
102
RTVSPost2010Prop52
140
1.0
102
RTVSPost2010PropOp52
 70
     0
102
RTVSPost2010Prop53
 90
        2
102
RTVSPost2010PropOp53
 70
     1
102
RTVSPost2010Prop54
  1
strokes_ogs.tif
102
RTVSPost2010PropOp54
 70
     1
102
RTVSPost2010Prop55
280
     0
102
RTVSPost2010PropOp55
 70
     1
102
RTVSPost2010Prop56
140
1.0
102
RTVSPost2010PropOp56
 70
     1
102
RTVSPost2010Prop57
140
1.0
102
RTVSPost2010PropOp57
 70
     1
102
RTVSPropertyOp0
 70
     1
102
RTVSPropertyOp1
 70
     1
102
RTVSPropertyOp2
 70
     1
102
RTVSPropertyOp3
 70
     1
102
RTVSPropertyOp4
 70
     1
102
RTVSPropertyOp5
 70
     1
102
RTVSPropertyOp6
 70
     1
102
RTVSPropertyOp7
 70
     1
102
RTVSPropertyOp8
 70
     1
102
RTVSPropertyOp9
 70
     1
102
RTVSPropertyOp10
 70
     1
102
RTVSPropertyOp11
 70
     1
102
RTVSPropertyOp12
 70
     1
102
RTVSPropertyOp13
 70
     1
102
RTVSPropertyOp14
 70
     1
102
RTVSPropertyOp15
 70
     1
102
RTVSPropertyOp16
 70
     1
102
RTVSPropertyOp17
 70
     1
102
RTVSPropertyOp18
 70
     1
102
RTVSPropertyOp19
 70
     1
102
RTVSPropertyOp20
 70
     1
102
RTVSPropertyOp21
 70
     1
102
RTVSPropertyOp22
 70
     1
102
RTVSPropertyOp23
 70
     1
102
RTVSPropertyOp24
 70
     1
102
RTVSPropertyOp25
 70
     1
102
RTVSPropertyOp26
 70
     1
102
RTVSPropertyOp27
 70
     1
102
RTVSPropertyOp28
 70
     1
102
RTVSPropertyOp29
 70
     1
102
RTVSPropertyOp30
 70
     1
102
RTVSPropertyOp31
 70
     1
102
RTVSPropertyOp32
 70
     1
102
RTVSPropertyOp33
 70
     1
102
RTVSPropertyOp34
 70
     1
102
RTVSPropertyOp35
 70
     1
102
RTVSPropertyOp36
 70
     1
102
RTVSPropertyOp37
 70
     1
102
RTVSPropertyOp38
 70
     1
102
RTVSPropertyOp39
 70
     1
102
RTVSPropertyOp40
 70
     1
102
RTVSPropertyOp41
 70
     1
102
RTVSPropertyOp42
 70
     1
102
RTVSPropertyOp43
 70
     1
102
RTVSPropertyOp44
 70
     1
102
RTVSPropertyOp45
 70
     1
102
RTVSPropertyOp46
 70
     1
102
RTVSPropertyOp47
 70
     1
102
RTVSPropertyOp48
 70
     1
102
RTVSPropertyOp49
 70
     1
102
RTVSPropertyOp50
 70
     1
102
RTVSPropertyOp51
 70
     0
102
RTVSPropertyOp52
 70
     0
102
RTVSPropertyOp53
 70
     1
102
RTVSPropertyOp54
 70
     1
102
RTVSPropertyOp55
 70
     1
102
RTVSPropertyOp56
 70
     1
102
RTVSPropertyOp57
 70
     1
102
RTVSPropertyOp58
 70
     1
102
RTVSPropertyOp59
 70
     1
102
RTVSPropertyOp60
 70
     1
102
RTVSPropertyOp61
 70
     1
102
RTVSPropertyOp62
 70
     1
  0
XRECORD
  5
274
102
{ACAD_REACTORS
330
273
102
}
330
273
100
AcDbXrecord
280
     1
102
RTVSPost2010Prop28
280
     0
102
RTVSPost2010PropOp28
 70
     1
102
RTVSPost2010Prop29
280
     1
102
RTVSPost2010PropOp29
 70
     1
102
RTVSPost2010Prop30
280
     1
102
RTVSPost2010PropOp30
 70
     1
102
RTVSPost2010Prop31
280
     0
102
RTVSPost2010PropOp31
 70
     1
102
RTVSPost2010Prop32
280
     0
102
RTVSPost2010PropOp32
 70
     1
102
RTVSPost2010Prop33
280
     0
102
RTVSPost2010PropOp33
 70
     1
102
RTVSPost2010Prop34
280
     0
102
RTVSPost2010PropOp34
 70
     1
102
RTVSPost2010Prop35
280
     0
102
RTVSPost2010PropOp35
 70
     1
102
RTVSPost2010Prop36
280
     0
102
RTVSPost2010PropOp36
 70
     1
102
RTVSPost2010Prop37
 90
       50
102
RTVSPost2010PropOp37
 70
     1
102
RTVSPost2010Prop38
140
0.0
102
RTVSPost2010PropOp38
 70
     1
102
RTVSPost2010Prop39
140
1.0
102
RTVSPost2010PropOp39
 70
     1
102
RTVSPost2010Prop40
 90
        0
102
RTVSPost2010PropOp40
 70
     1
102
RTVSPost2010Prop41ColorIndex
 90
       18
102
RTVSPost2010Prop41ColorRGB
 90
        0
102
RTVSPost2010PropOp41
 70
     1
102
RTVSPost2010Prop42
 90
       50
102
RTVSPost2010PropOp42
 70
     1
102
RTVSPost2010Prop43
 90
        3
102
RTVSPost2010PropOp43
 70
     1
102
RTVSPost2010Prop44ColorIndex
 90
        5
102
RTVSPost2010Prop44ColorRGB
 90
      255
102
RTVSPost2010PropOp44
 70
     1
102
RTVSPost2010Prop45
280
     0
102
RTVSPost2010PropOp45
 70
     1
102
RTVSPost2010Prop46
 90
       50
102
RTVSPost2010PropOp46
 70
     1
102
RTVSPost2010Prop47
 90
       50
102
RTVSPost2010PropOp47
 70
     1
102
RTVSPost2010Prop48
 90
       50
102
RTVSPost2010PropOp48
 70
     1
102
RTVSPost2010Prop49
280
     0
102
RTVSPost2010PropOp49
 70
     1
102
RTVSPost2010Prop50
 90
       50
102
RTVSPost2010PropOp50
 70
     1
102
RTVSPost2010Prop51ColorIndex
 90
      256
102
RTVSPost2010Prop51ColorRGB
 90
-16777216
102
RTVSPost2010PropOp51
 70
     0
102
RTVSPost2010Prop52
140
1.0
102
RTVSPost2010PropOp52
 70
     0
102
RTVSPost2010Prop53
 90
        2
102
RTVSPost2010PropOp53
 70
     1
102
RTVSPost2010Prop54
  1
strokes_ogs.tif
102
RTVSPost2010PropOp54
 70
     1
102
RTVSPost2010Prop55
280
     0
102
RTVSPost2010PropOp55
 70
     1
102
RTVSPost2010Prop56
140
1.0
102
RTVSPost2010PropOp56
 70
     1
102
RTVSPost2010Prop57
140
1.0
102
RTVSPost2010PropOp57
 70
     1
102
RTVSPropertyOp0
 70
     1
102
RTVSPropertyOp1
 70
     1
102
RTVSPropertyOp2
 70
     1
102
RTVSPropertyOp3
 70
     1
102
RTVSPropertyOp4
 70
     1
102
RTVSPropertyOp5
 70
     1
102
RTVSPropertyOp6
 70
     1
102
RTVSPropertyOp7
 70
     1
102
RTVSPropertyOp8
 70
     1
102
RTVSPropertyOp9
 70
     1
102
RTVSPropertyOp10
 70
     1
102
RTVSPropertyOp11
 70
     1
102
RTVSPropertyOp12
 70
     1
102
RTVSPropertyOp13
 70
     1
102
RTVSPropertyOp14
 70
     1
102
RTVSPropertyOp15
 70
     1
102
RTVSPropertyOp16
 70
     1
102
RTVSPropertyOp17
 70
     1
102
RTVSPropertyOp18
 70
     1
102
RTVSPropertyOp19
 70
     1
102
RTVSPropertyOp20
 70
     1
102
RTVSPropertyOp21
 70
     1
102
RTVSPropertyOp22
 70
     1
102
RTVSPropertyOp23
 70
     1
102
RTVSPropertyOp24
 70
     1
102
RTVSPropertyOp25
 70
     1
102
RTVSPropertyOp26
 70
     1
102
RTVSPropertyOp27
 70
     1
102
RTVSPropertyOp28
 70
     1
102
RTVSPropertyOp29
 70
     1
102
RTVSPropertyOp30
 70
     1
102
RTVSPropertyOp31
 70
     1
102
RTVSPropertyOp32
 70
     1
102
RTVSPropertyOp33
 70
     1
102
RTVSPropertyOp34
 70
     1
102
RTVSPropertyOp35
 70
     1
102
RTVSPropertyOp36
 70
     1
102
RTVSPropertyOp37
 70
     1
102
RTVSPropertyOp38
 70
     1
102
RTVSPropertyOp39
 70
     1
102
RTVSPropertyOp40
 70
     1
102
RTVSPropertyOp41
 70
     1
102
RTVSPropertyOp42
 70
     1
102
RTVSPropertyOp43
 70
     1
102
RTVSPropertyOp44
 70
     1
102
RTVSPropertyOp45
 70
     1
102
RTVSPropertyOp46
 70
     1
102
RTVSPropertyOp47
 70
     1
102
RTVSPropertyOp48
 70
     1
102
RTVSPropertyOp49
 70
     1
102
RTVSPropertyOp50
 70
     1
102
RTVSPropertyOp51
 70
     0
102
RTVSPropertyOp52
 70
     0
102
RTVSPropertyOp53
 70
     1
102
RTVSPropertyOp54
 70
     1
102
RTVSPropertyOp55
 70
     1
102
RTVSPropertyOp56
 70
     1
102
RTVSPropertyOp57
 70
     1
102
RTVSPropertyOp58
 70
     1
102
RTVSPropertyOp59
 70
     1
102
RTVSPropertyOp60
 70
     1
102
RTVSPropertyOp61
 70
     1
102
RTVSPropertyOp62
 70
     1
  0
XRECORD
  5
276
102
{ACAD_REACTORS
330
275
102
}
330
275
100
AcDbXrecord
280
     1
102
RTVSPost2010Prop28
280
     0
102
RTVSPost2010PropOp28
 70
     1
102
RTVSPost2010Prop29
280
     1
102
RTVSPost2010PropOp29
 70
     1
102
RTVSPost2010Prop30
280
     1
102
RTVSPost2010PropOp30
 70
     1
102
RTVSPost2010Prop31
280
     0
102
RTVSPost2010PropOp31
 70
     1
102
RTVSPost2010Prop32
280
     0
102
RTVSPost2010PropOp32
 70
     1
102
RTVSPost2010Prop33
280
     0
102
RTVSPost2010PropOp33
 70
     1
102
RTVSPost2010Prop34
280
     0
102
RTVSPost2010PropOp34
 70
     1
102
RTVSPost2010Prop35
280
     0
102
RTVSPost2010PropOp35
 70
     1
102
RTVSPost2010Prop36
280
     0
102
RTVSPost2010PropOp36
 70
     1
102
RTVSPost2010Prop37
 90
       50
102
RTVSPost2010PropOp37
 70
     1
102
RTVSPost2010Prop38
140
0.0
102
RTVSPost2010PropOp38
 70
     1
102
RTVSPost2010Prop39
140
1.0
102
RTVSPost2010PropOp39
 70
     1
102
RTVSPost2010Prop40
 90
        0
102
RTVSPost2010PropOp40
 70
     1
102
RTVSPost2010Prop41ColorIndex
 90
       18
102
RTVSPost2010Prop41ColorRGB
 90
        0
102
RTVSPost2010PropOp41
 70
     1
102
RTVSPost2010Prop42
 90
       50
102
RTVSPost2010PropOp42
 70
     1
102
RTVSPost2010Prop43
 90
        3
102
RTVSPost2010PropOp43
 70
     1
102
RTVSPost2010Prop44ColorIndex
 90
        5
102
RTVSPost2010Prop44ColorRGB
 90
      255
102
RTVSPost2010PropOp44
 70
     1
102
RTVSPost2010Prop45
280
     0
102
RTVSPost2010PropOp45
 70
     1
102
RTVSPost2010Prop46
 90
       50
102
RTVSPost2010PropOp46
 70
     1
102
RTVSPost2010Prop47
 90
       50
102
RTVSPost2010PropOp47
 70
     1
102
RTVSPost2010Prop48
 90
       50
102
RTVSPost2010PropOp48
 70
     1
102
RTVSPost2010Prop49
280
     0
102
RTVSPost2010PropOp49
 70
     1
102
RTVSPost2010Prop50
 90
       50
102
RTVSPost2010PropOp50
 70
     1
102
RTVSPost2010Prop51ColorIndex
 90
      256
102
RTVSPost2010Prop51ColorRGB
 90
-16777216
102
RTVSPost2010PropOp51
 70
     0
102
RTVSPost2010Prop52
140
1.0
102
RTVSPost2010PropOp52
 70
     0
102
RTVSPost2010Prop53
 90
        2
102
RTVSPost2010PropOp53
 70
     1
102
RTVSPost2010Prop54
  1
strokes_ogs.tif
102
RTVSPost2010PropOp54
 70
     1
102
RTVSPost2010Prop55
280
     0
102
RTVSPost2010PropOp55
 70
     1
102
RTVSPost2010Prop56
140
1.0
102
RTVSPost2010PropOp56
 70
     1
102
RTVSPost2010Prop57
140
1.0
102
RTVSPost2010PropOp57
 70
     1
102
RTVSPropertyOp0
 70
     1
102
RTVSPropertyOp1
 70
     1
102
RTVSPropertyOp2
 70
     1
102
RTVSPropertyOp3
 70
     1
102
RTVSPropertyOp4
 70
     1
102
RTVSPropertyOp5
 70
     1
102
RTVSPropertyOp6
 70
     1
102
RTVSPropertyOp7
 70
     1
102
RTVSPropertyOp8
 70
     1
102
RTVSPropertyOp9
 70
     1
102
RTVSPropertyOp10
 70
     1
102
RTVSPropertyOp11
 70
     1
102
RTVSPropertyOp12
 70
     1
102
RTVSPropertyOp13
 70
     1
102
RTVSPropertyOp14
 70
     1
102
RTVSPropertyOp15
 70
     1
102
RTVSPropertyOp16
 70
     1
102
RTVSPropertyOp17
 70
     1
102
RTVSPropertyOp18
 70
     1
102
RTVSPropertyOp19
 70
     1
102
RTVSPropertyOp20
 70
     1
102
RTVSPropertyOp21
 70
     1
102
RTVSPropertyOp22
 70
     1
102
RTVSPropertyOp23
 70
     1
102
RTVSPropertyOp24
 70
     1
102
RTVSPropertyOp25
 70
     1
102
RTVSPropertyOp26
 70
     1
102
RTVSPropertyOp27
 70
     1
102
RTVSPropertyOp28
 70
     1
102
RTVSPropertyOp29
 70
     1
102
RTVSPropertyOp30
 70
     1
102
RTVSPropertyOp31
 70
     1
102
RTVSPropertyOp32
 70
     1
102
RTVSPropertyOp33
 70
     1
102
RTVSPropertyOp34
 70
     1
102
RTVSPropertyOp35
 70
     1
102
RTVSPropertyOp36
 70
     1
102
RTVSPropertyOp37
 70
     1
102
RTVSPropertyOp38
 70
     1
102
RTVSPropertyOp39
 70
     1
102
RTVSPropertyOp40
 70
     1
102
RTVSPropertyOp41
 70
     1
102
RTVSPropertyOp42
 70
     1
102
RTVSPropertyOp43
 70
     1
102
RTVSPropertyOp44
 70
     1
102
RTVSPropertyOp45
 70
     1
102
RTVSPropertyOp46
 70
     1
102
RTVSPropertyOp47
 70
     1
102
RTVSPropertyOp48
 70
     1
102
RTVSPropertyOp49
 70
     1
102
RTVSPropertyOp50
 70
     1
102
RTVSPropertyOp51
 70
     0
102
RTVSPropertyOp52
 70
     0
102
RTVSPropertyOp53
 70
     1
102
RTVSPropertyOp54
 70
     1
102
RTVSPropertyOp55
 70
     1
102
RTVSPropertyOp56
 70
     1
102
RTVSPropertyOp57
 70
     1
102
RTVSPropertyOp58
 70
     1
102
RTVSPropertyOp59
 70
     1
102
RTVSPropertyOp60
 70
     1
102
RTVSPropertyOp61
 70
     1
102
RTVSPropertyOp62
 70
     1
  0
XRECORD
  5
278
102
{ACAD_REACTORS
330
277
102
}
330
277
100
AcDbXrecord
280
     1
102
RTVSPost2010Prop28
280
     0
102
RTVSPost2010PropOp28
 70
     1
102
RTVSPost2010Prop29
280
     1
102
RTVSPost2010PropOp29
 70
     1
102
RTVSPost2010Prop30
280
     1
102
RTVSPost2010PropOp30
 70
     1
102
RTVSPost2010Prop31
280
     0
102
RTVSPost2010PropOp31
 70
     1
102
RTVSPost2010Prop32
280
     0
102
RTVSPost2010PropOp32
 70
     1
102
RTVSPost2010Prop33
280
     0
102
RTVSPost2010PropOp33
 70
     1
102
RTVSPost2010Prop34
280
     0
102
RTVSPost2010PropOp34
 70
     1
102
RTVSPost2010Prop35
280
     0
102
RTVSPost2010PropOp35
 70
     1
102
RTVSPost2010Prop36
280
     0
102
RTVSPost2010PropOp36
 70
     1
102
RTVSPost2010Prop37
 90
       50
102
RTVSPost2010PropOp37
 70
     1
102
RTVSPost2010Prop38
140
0.0
102
RTVSPost2010PropOp38
 70
     1
102
RTVSPost2010Prop39
140
1.0
102
RTVSPost2010PropOp39
 70
     1
102
RTVSPost2010Prop40
 90
        0
102
RTVSPost2010PropOp40
 70
     1
102
RTVSPost2010Prop41ColorIndex
 90
       18
102
RTVSPost2010Prop41ColorRGB
 90
        0
102
RTVSPost2010PropOp41
 70
     1
102
RTVSPost2010Prop42
 90
       50
102
RTVSPost2010PropOp42
 70
     1
102
RTVSPost2010Prop43
 90
        3
102
RTVSPost2010PropOp43
 70
     1
102
RTVSPost2010Prop44ColorIndex
 90
        5
102
RTVSPost2010Prop44ColorRGB
 90
      255
102
RTVSPost2010PropOp44
 70
     1
102
RTVSPost2010Prop45
280
     0
102
RTVSPost2010PropOp45
 70
     1
102
RTVSPost2010Prop46
 90
       50
102
RTVSPost2010PropOp46
 70
     1
102
RTVSPost2010Prop47
 90
       50
102
RTVSPost2010PropOp47
 70
     1
102
RTVSPost2010Prop48
 90
       50
102
RTVSPost2010PropOp48
 70
     1
102
RTVSPost2010Prop49
280
     0
102
RTVSPost2010PropOp49
 70
     1
102
RTVSPost2010Prop50
 90
       50
102
RTVSPost2010PropOp50
 70
     1
102
RTVSPost2010Prop51ColorIndex
 90
      256
102
RTVSPost2010Prop51ColorRGB
 90
-16777216
102
RTVSPost2010PropOp51
 70
     0
102
RTVSPost2010Prop52
140
1.0
102
RTVSPost2010PropOp52
 70
     0
102
RTVSPost2010Prop53
 90
        2
102
RTVSPost2010PropOp53
 70
     1
102
RTVSPost2010Prop54
  1
strokes_ogs.tif
102
RTVSPost2010PropOp54
 70
     1
102
RTVSPost2010Prop55
280
     0
102
RTVSPost2010PropOp55
 70
     1
102
RTVSPost2010Prop56
140
1.0
102
RTVSPost2010PropOp56
 70
     1
102
RTVSPost2010Prop57
140
1.0
102
RTVSPost2010PropOp57
 70
     1
102
RTVSPropertyOp0
 70
     1
102
RTVSPropertyOp1
 70
     1
102
RTVSPropertyOp2
 70
     1
102
RTVSPropertyOp3
 70
     1
102
RTVSPropertyOp4
 70
     1
102
RTVSPropertyOp5
 70
     1
102
RTVSPropertyOp6
 70
     1
102
RTVSPropertyOp7
 70
     1
102
RTVSPropertyOp8
 70
     1
102
RTVSPropertyOp9
 70
     1
102
RTVSPropertyOp10
 70
     1
102
RTVSPropertyOp11
 70
     1
102
RTVSPropertyOp12
 70
     1
102
RTVSPropertyOp13
 70
     1
102
RTVSPropertyOp14
 70
     1
102
RTVSPropertyOp15
 70
     1
102
RTVSPropertyOp16
 70
     1
102
RTVSPropertyOp17
 70
     1
102
RTVSPropertyOp18
 70
     1
102
RTVSPropertyOp19
 70
     1
102
RTVSPropertyOp20
 70
     1
102
RTVSPropertyOp21
 70
     1
102
RTVSPropertyOp22
 70
     1
102
RTVSPropertyOp23
 70
     1
102
RTVSPropertyOp24
 70
     1
102
RTVSPropertyOp25
 70
     1
102
RTVSPropertyOp26
 70
     1
102
RTVSPropertyOp27
 70
     1
102
RTVSPropertyOp28
 70
     1
102
RTVSPropertyOp29
 70
     1
102
RTVSPropertyOp30
 70
     1
102
RTVSPropertyOp31
 70
     1
102
RTVSPropertyOp32
 70
     1
102
RTVSPropertyOp33
 70
     1
102
RTVSPropertyOp34
 70
     1
102
RTVSPropertyOp35
 70
     1
102
RTVSPropertyOp36
 70
     1
102
RTVSPropertyOp37
 70
     1
102
RTVSPropertyOp38
 70
     1
102
RTVSPropertyOp39
 70
     1
102
RTVSPropertyOp40
 70
     1
102
RTVSPropertyOp41
 70
     1
102
RTVSPropertyOp42
 70
     1
102
RTVSPropertyOp43
 70
     1
102
RTVSPropertyOp44
 70
     1
102
RTVSPropertyOp45
 70
     1
102
RTVSPropertyOp46
 70
     1
102
RTVSPropertyOp47
 70
     1
102
RTVSPropertyOp48
 70
     1
102
RTVSPropertyOp49
 70
     1
102
RTVSPropertyOp50
 70
     1
102
RTVSPropertyOp51
 70
     0
102
RTVSPropertyOp52
 70
     0
102
RTVSPropertyOp53
 70
     1
102
RTVSPropertyOp54
 70
     1
102
RTVSPropertyOp55
 70
     1
102
RTVSPropertyOp56
 70
     1
102
RTVSPropertyOp57
 70
     1
102
RTVSPropertyOp58
 70
     1
102
RTVSPropertyOp59
 70
     1
102
RTVSPropertyOp60
 70
     1
102
RTVSPropertyOp61
 70
     1
102
RTVSPropertyOp62
 70
     1
  0
XRECORD
  5
280
102
{ACAD_REACTORS
330
27F
102
}
330
27F
100
AcDbXrecord
280
     1
102
RTVSPost2010Prop28
280
     0
102
RTVSPost2010PropOp28
 70
     1
102
RTVSPost2010Prop29
280
     1
102
RTVSPost2010PropOp29
 70
     1
102
RTVSPost2010Prop30
280
     1
102
RTVSPost2010PropOp30
 70
     1
102
RTVSPost2010Prop31
280
     0
102
RTVSPost2010PropOp31
 70
     1
102
RTVSPost2010Prop32
280
     0
102
RTVSPost2010PropOp32
 70
     1
102
RTVSPost2010Prop33
280
     0
102
RTVSPost2010PropOp33
 70
     1
102
RTVSPost2010Prop34
280
     0
102
RTVSPost2010PropOp34
 70
     1
102
RTVSPost2010Prop35
280
     0
102
RTVSPost2010PropOp35
 70
     1
102
RTVSPost2010Prop36
280
     0
102
RTVSPost2010PropOp36
 70
     1
102
RTVSPost2010Prop37
 90
       50
102
RTVSPost2010PropOp37
 70
     1
102
RTVSPost2010Prop38
140
0.0
102
RTVSPost2010PropOp38
 70
     1
102
RTVSPost2010Prop39
140
1.0
102
RTVSPost2010PropOp39
 70
     1
102
RTVSPost2010Prop40
 90
        0
102
RTVSPost2010PropOp40
 70
     1
102
RTVSPost2010Prop41ColorIndex
 90
       18
102
RTVSPost2010Prop41ColorRGB
 90
        0
102
RTVSPost2010PropOp41
 70
     1
102
RTVSPost2010Prop42
 90
       50
102
RTVSPost2010PropOp42
 70
     1
102
RTVSPost2010Prop43
 90
        3
102
RTVSPost2010PropOp43
 70
     1
102
RTVSPost2010Prop44ColorIndex
 90
        5
102
RTVSPost2010Prop44ColorRGB
 90
      255
102
RTVSPost2010PropOp44
 70
     1
102
RTVSPost2010Prop45
280
     0
102
RTVSPost2010PropOp45
 70
     1
102
RTVSPost2010Prop46
 90
       50
102
RTVSPost2010PropOp46
 70
     1
102
RTVSPost2010Prop47
 90
       50
102
RTVSPost2010PropOp47
 70
     1
102
RTVSPost2010Prop48
 90
       50
102
RTVSPost2010PropOp48
 70
     1
102
RTVSPost2010Prop49
280
     0
102
RTVSPost2010PropOp49
 70
     1
102
RTVSPost2010Prop50
 90
       50
102
RTVSPost2010PropOp50
 70
     1
102
RTVSPost2010Prop51ColorIndex
 90
      256
102
RTVSPost2010Prop51ColorRGB
 90
-16777216
102
RTVSPost2010PropOp51
 70
     0
102
RTVSPost2010Prop52
140
1.0
102
RTVSPost2010PropOp52
 70
     0
102
RTVSPost2010Prop53
 90
        2
102
RTVSPost2010PropOp53
 70
     1
102
RTVSPost2010Prop54
  1
strokes_ogs.tif
102
RTVSPost2010PropOp54
 70
     1
102
RTVSPost2010Prop55
280
     0
102
RTVSPost2010PropOp55
 70
     1
102
RTVSPost2010Prop56
140
1.0
102
RTVSPost2010PropOp56
 70
     1
102
RTVSPost2010Prop57
140
1.0
102
RTVSPost2010PropOp57
 70
     1
102
RTVSPropertyOp0
 70
     1
102
RTVSPropertyOp1
 70
     1
102
RTVSPropertyOp2
 70
     1
102
RTVSPropertyOp3
 70
     1
102
RTVSPropertyOp4
 70
     1
102
RTVSPropertyOp5
 70
     1
102
RTVSPropertyOp6
 70
     1
102
RTVSPropertyOp7
 70
     1
102
RTVSPropertyOp8
 70
     1
102
RTVSPropertyOp9
 70
     1
102
RTVSPropertyOp10
 70
     1
102
RTVSPropertyOp11
 70
     1
102
RTVSPropertyOp12
 70
     1
102
RTVSPropertyOp13
 70
     1
102
RTVSPropertyOp14
 70
     1
102
RTVSPropertyOp15
 70
     1
102
RTVSPropertyOp16
 70
     1
102
RTVSPropertyOp17
 70
     1
102
RTVSPropertyOp18
 70
     1
102
RTVSPropertyOp19
 70
     1
102
RTVSPropertyOp20
 70
     1
102
RTVSPropertyOp21
 70
     1
102
RTVSPropertyOp22
 70
     1
102
RTVSPropertyOp23
 70
     1
102
RTVSPropertyOp24
 70
     1
102
RTVSPropertyOp25
 70
     1
102
RTVSPropertyOp26
 70
     1
102
RTVSPropertyOp27
 70
     1
102
RTVSPropertyOp28
 70
     1
102
RTVSPropertyOp29
 70
     1
102
RTVSPropertyOp30
 70
     1
102
RTVSPropertyOp31
 70
     1
102
RTVSPropertyOp32
 70
     1
102
RTVSPropertyOp33
 70
     1
102
RTVSPropertyOp34
 70
     1
102
RTVSPropertyOp35
 70
     1
102
RTVSPropertyOp36
 70
     1
102
RTVSPropertyOp37
 70
     1
102
RTVSPropertyOp38
 70
     1
102
RTVSPropertyOp39
 70
     1
102
RTVSPropertyOp40
 70
     1
102
RTVSPropertyOp41
 70
     1
102
RTVSPropertyOp42
 70
     1
102
RTVSPropertyOp43
 70
     1
102
RTVSPropertyOp44
 70
     1
102
RTVSPropertyOp45
 70
     1
102
RTVSPropertyOp46
 70
     1
102
RTVSPropertyOp47
 70
     1
102
RTVSPropertyOp48
 70
     1
102
RTVSPropertyOp49
 70
     1
102
RTVSPropertyOp50
 70
     1
102
RTVSPropertyOp51
 70
     0
102
RTVSPropertyOp52
 70
     0
102
RTVSPropertyOp53
 70
     1
102
RTVSPropertyOp54
 70
     1
102
RTVSPropertyOp55
 70
     1
102
RTVSPropertyOp56
 70
     1
102
RTVSPropertyOp57
 70
     1
102
RTVSPropertyOp58
 70
     1
102
RTVSPropertyOp59
 70
     1
102
RTVSPropertyOp60
 70
     1
102
RTVSPropertyOp61
 70
     1
102
RTVSPropertyOp62
 70
     1
  0
XRECORD
  5
29C
102
{ACAD_REACTORS
330
29B
102
}
330
29B
100
AcDbXrecord
280
     1
102
RTVSPost2010Prop28
280
     0
102
RTVSPost2010PropOp28
 70
     0
102
RTVSPost2010Prop29
280
     1
102
RTVSPost2010PropOp29
 70
     0
102
RTVSPost2010Prop30
280
     1
102
RTVSPost2010PropOp30
 70
     0
102
RTVSPost2010Prop31
280
     0
102
RTVSPost2010PropOp31
 70
     0
102
RTVSPost2010Prop32
280
     0
102
RTVSPost2010PropOp32
 70
     0
102
RTVSPost2010Prop33
280
     0
102
RTVSPost2010PropOp33
 70
     0
102
RTVSPost2010Prop34
280
     0
102
RTVSPost2010PropOp34
 70
     0
102
RTVSPost2010Prop35
280
     0
102
RTVSPost2010PropOp35
 70
     0
102
RTVSPost2010Prop36
280
     0
102
RTVSPost2010PropOp36
 70
     0
102
RTVSPost2010Prop37
 90
       50
102
RTVSPost2010PropOp37
 70
     0
102
RTVSPost2010Prop38
140
0.0
102
RTVSPost2010PropOp38
 70
     0
102
RTVSPost2010Prop39
140
1.0
102
RTVSPost2010PropOp39
 70
     0
102
RTVSPost2010Prop40
 90
        0
102
RTVSPost2010PropOp40
 70
     0
102
RTVSPost2010Prop41ColorIndex
 90
       18
102
RTVSPost2010Prop41ColorRGB
 90
        0
102
RTVSPost2010PropOp41
 70
     0
102
RTVSPost2010Prop42
 90
       50
102
RTVSPost2010PropOp42
 70
     0
102
RTVSPost2010Prop43
 90
        3
102
RTVSPost2010PropOp43
 70
     0
102
RTVSPost2010Prop44ColorIndex
 90
        5
102
RTVSPost2010Prop44ColorRGB
 90
      255
102
RTVSPost2010PropOp44
 70
     0
102
RTVSPost2010Prop45
280
     0
102
RTVSPost2010PropOp45
 70
     0
102
RTVSPost2010Prop46
 90
       50
102
RTVSPost2010PropOp46
 70
     0
102
RTVSPost2010Prop47
 90
       50
102
RTVSPost2010PropOp47
 70
     0
102
RTVSPost2010Prop48
 90
       50
102
RTVSPost2010PropOp48
 70
     0
102
RTVSPost2010Prop49
280
     0
102
RTVSPost2010PropOp49
 70
     0
102
RTVSPost2010Prop50
 90
       50
102
RTVSPost2010PropOp50
 70
     0
102
RTVSPost2010Prop51ColorIndex
 90
      256
102
RTVSPost2010Prop51ColorRGB
 90
-16777216
102
RTVSPost2010PropOp51
 70
     0
102
RTVSPost2010Prop52
140
1.0
102
RTVSPost2010PropOp52
 70
     0
102
RTVSPost2010Prop53
 90
        2
102
RTVSPost2010PropOp53
 70
     0
102
RTVSPost2010Prop54
  1
strokes_ogs.tif
102
RTVSPost2010PropOp54
 70
     0
102
RTVSPost2010Prop55
280
     0
102
RTVSPost2010PropOp55
 70
     0
102
RTVSPost2010Prop56
140
1.0
102
RTVSPost2010PropOp56
 70
     0
102
RTVSPost2010Prop57
140
1.0
102
RTVSPost2010PropOp57
 70
     0
102
RTVSPropertyOp0
 70
     0
102
RTVSPropertyOp1
 70
     0
102
RTVSPropertyOp2
 70
     0
102
RTVSPropertyOp3
 70
     0
102
RTVSPropertyOp4
 70
     0
102
RTVSPropertyOp5
 70
     0
102
RTVSPropertyOp6
 70
     0
102
RTVSPropertyOp7
 70
     0
102
RTVSPropertyOp8
 70
     0
102
RTVSPropertyOp9
 70
     0
102
RTVSPropertyOp10
 70
     0
102
RTVSPropertyOp11
 70
     0
102
RTVSPropertyOp12
 70
     0
102
RTVSPropertyOp13
 70
     0
102
RTVSPropertyOp14
 70
     2
102
RTVSPropertyOp15
 70
     0
102
RTVSPropertyOp16
 70
     0
102
RTVSPropertyOp17
 70
     0
102
RTVSPropertyOp18
 70
     0
102
RTVSPropertyOp19
 70
     0
102
RTVSPropertyOp20
 70
     0
102
RTVSPropertyOp21
 70
     0
102
RTVSPropertyOp22
 70
     0
102
RTVSPropertyOp23
 70
     0
102
RTVSPropertyOp24
 70
     0
102
RTVSPropertyOp25
 70
     0
102
RTVSPropertyOp26
 70
     0
102
RTVSPropertyOp27
 70
     0
102
RTVSPropertyOp28
 70
     0
102
RTVSPropertyOp29
 70
     0
102
RTVSPropertyOp30
 70
     0
102
RTVSPropertyOp31
 70
     0
102
RTVSPropertyOp32
 70
     0
102
RTVSPropertyOp33
 70
     0
102
RTVSPropertyOp34
 70
     0
102
RTVSPropertyOp35
 70
     0
102
RTVSPropertyOp36
 70
     0
102
RTVSPropertyOp37
 70
     0
102
RTVSPropertyOp38
 70
     0
102
RTVSPropertyOp39
 70
     0
102
RTVSPropertyOp40
 70
     0
102
RTVSPropertyOp41
 70
     0
102
RTVSPropertyOp42
 70
     0
102
RTVSPropertyOp43
 70
     0
102
RTVSPropertyOp44
 70
     0
102
RTVSPropertyOp45
 70
     0
102
RTVSPropertyOp46
 70
     0
102
RTVSPropertyOp47
 70
     0
102
RTVSPropertyOp48
 70
     0
102
RTVSPropertyOp49
 70
     0
102
RTVSPropertyOp50
 70
     0
102
RTVSPropertyOp51
 70
     0
102
RTVSPropertyOp52
 70
     0
102
RTVSPropertyOp53
 70
     0
102
RTVSPropertyOp54
 70
     0
102
RTVSPropertyOp55
 70
     0
102
RTVSPropertyOp56
 70
     0
102
RTVSPropertyOp57
 70
     0
102
RTVSPropertyOp58
 70
     0
102
RTVSPropertyOp59
 70
     0
102
RTVSPropertyOp60
 70
     0
102
RTVSPropertyOp61
 70
     0
102
RTVSPropertyOp62
 70
     0
  0
XRECORD
  5
28C
102
{ACAD_REACTORS
330
28B
102
}
330
28B
100
AcDbXrecord
280
     1
102
RTVSPost2010Prop28
280
     0
102
RTVSPost2010PropOp28
 70
     1
102
RTVSPost2010Prop29
280
     1
102
RTVSPost2010PropOp29
 70
     1
102
RTVSPost2010Prop30
280
     1
102
RTVSPost2010PropOp30
 70
     1
102
RTVSPost2010Prop31
280
     0
102
RTVSPost2010PropOp31
 70
     1
102
RTVSPost2010Prop32
280
     0
102
RTVSPost2010PropOp32
 70
     1
102
RTVSPost2010Prop33
280
     0
102
RTVSPost2010PropOp33
 70
     1
102
RTVSPost2010Prop34
280
     0
102
RTVSPost2010PropOp34
 70
     1
102
RTVSPost2010Prop35
280
     0
102
RTVSPost2010PropOp35
 70
     1
102
RTVSPost2010Prop36
280
     0
102
RTVSPost2010PropOp36
 70
     1
102
RTVSPost2010Prop37
 90
       50
102
RTVSPost2010PropOp37
 70
     1
102
RTVSPost2010Prop38
140
0.0
102
RTVSPost2010PropOp38
 70
     1
102
RTVSPost2010Prop39
140
1.0
102
RTVSPost2010PropOp39
 70
     1
102
RTVSPost2010Prop40
 90
        0
102
RTVSPost2010PropOp40
 70
     1
102
RTVSPost2010Prop41ColorIndex
 90
       18
102
RTVSPost2010Prop41ColorRGB
 90
        0
102
RTVSPost2010PropOp41
 70
     1
102
RTVSPost2010Prop42
 90
       50
102
RTVSPost2010PropOp42
 70
     1
102
RTVSPost2010Prop43
 90
        3
102
RTVSPost2010PropOp43
 70
     1
102
RTVSPost2010Prop44ColorIndex
 90
        5
102
RTVSPost2010Prop44ColorRGB
 90
      255
102
RTVSPost2010PropOp44
 70
     1
102
RTVSPost2010Prop45
280
     0
102
RTVSPost2010PropOp45
 70
     1
102
RTVSPost2010Prop46
 90
       50
102
RTVSPost2010PropOp46
 70
     1
102
RTVSPost2010Prop47
 90
       50
102
RTVSPost2010PropOp47
 70
     1
102
RTVSPost2010Prop48
 90
       50
102
RTVSPost2010PropOp48
 70
     1
102
RTVSPost2010Prop49
280
     0
102
RTVSPost2010PropOp49
 70
     1
102
RTVSPost2010Prop50
 90
       50
102
RTVSPost2010PropOp50
 70
     1
102
RTVSPost2010Prop51ColorIndex
 90
      256
102
RTVSPost2010Prop51ColorRGB
 90
-16777216
102
RTVSPost2010PropOp51
 70
     0
102
RTVSPost2010Prop52
140
1.0
102
RTVSPost2010PropOp52
 70
     0
102
RTVSPost2010Prop53
 90
        2
102
RTVSPost2010PropOp53
 70
     1
102
RTVSPost2010Prop54
  1
strokes_ogs.tif
102
RTVSPost2010PropOp54
 70
     1
102
RTVSPost2010Prop55
280
     0
102
RTVSPost2010PropOp55
 70
     1
102
RTVSPost2010Prop56
140
1.0
102
RTVSPost2010PropOp56
 70
     1
102
RTVSPost2010Prop57
140
1.0
102
RTVSPost2010PropOp57
 70
     1
102
RTVSPropertyOp0
 70
     1
102
RTVSPropertyOp1
 70
     1
102
RTVSPropertyOp2
 70
     1
102
RTVSPropertyOp3
 70
     1
102
RTVSPropertyOp4
 70
     1
102
RTVSPropertyOp5
 70
     1
102
RTVSPropertyOp6
 70
     1
102
RTVSPropertyOp7
 70
     1
102
RTVSPropertyOp8
 70
     1
102
RTVSPropertyOp9
 70
     1
102
RTVSPropertyOp10
 70
     1
102
RTVSPropertyOp11
 70
     1
102
RTVSPropertyOp12
 70
     1
102
RTVSPropertyOp13
 70
     1
102
RTVSPropertyOp14
 70
     1
102
RTVSPropertyOp15
 70
     1
102
RTVSPropertyOp16
 70
     1
102
RTVSPropertyOp17
 70
     1
102
RTVSPropertyOp18
 70
     1
102
RTVSPropertyOp19
 70
     1
102
RTVSPropertyOp20
 70
     1
102
RTVSPropertyOp21
 70
     1
102
RTVSPropertyOp22
 70
     1
102
RTVSPropertyOp23
 70
     1
102
RTVSPropertyOp24
 70
     1
102
RTVSPropertyOp25
 70
     1
102
RTVSPropertyOp26
 70
     1
102
RTVSPropertyOp27
 70
     1
102
RTVSPropertyOp28
 70
     1
102
RTVSPropertyOp29
 70
     1
102
RTVSPropertyOp30
 70
     1
102
RTVSPropertyOp31
 70
     1
102
RTVSPropertyOp32
 70
     1
102
RTVSPropertyOp33
 70
     1
102
RTVSPropertyOp34
 70
     1
102
RTVSPropertyOp35
 70
     1
102
RTVSPropertyOp36
 70
     1
102
RTVSPropertyOp37
 70
     1
102
RTVSPropertyOp38
 70
     1
102
RTVSPropertyOp39
 70
     1
102
RTVSPropertyOp40
 70
     1
102
RTVSPropertyOp41
 70
     1
102
RTVSPropertyOp42
 70
     1
102
RTVSPropertyOp43
 70
     1
102
RTVSPropertyOp44
 70
     1
102
RTVSPropertyOp45
 70
     1
102
RTVSPropertyOp46
 70
     1
102
RTVSPropertyOp47
 70
     1
102
RTVSPropertyOp48
 70
     1
102
RTVSPropertyOp49
 70
     1
102
RTVSPropertyOp50
 70
     1
102
RTVSPropertyOp51
 70
     0
102
RTVSPropertyOp52
 70
     0
102
RTVSPropertyOp53
 70
     1
102
RTVSPropertyOp54
 70
     1
102
RTVSPropertyOp55
 70
     1
102
RTVSPropertyOp56
 70
     1
102
RTVSPropertyOp57
 70
     1
102
RTVSPropertyOp58
 70
     1
102
RTVSPropertyOp59
 70
     1
102
RTVSPropertyOp60
 70
     1
102
RTVSPropertyOp61
 70
     1
102
RTVSPropertyOp62
 70
     1
  0
XRECORD
  5
29E
102
{ACAD_REACTORS
330
29D
102
}
330
29D
100
AcDbXrecord
280
     1
102
RTVSPost2010Prop28
280
     0
102
RTVSPost2010PropOp28
 70
     0
102
RTVSPost2010Prop29
280
     1
102
RTVSPost2010PropOp29
 70
     0
102
RTVSPost2010Prop30
280
     1
102
RTVSPost2010PropOp30
 70
     0
102
RTVSPost2010Prop31
280
     0
102
RTVSPost2010PropOp31
 70
     0
102
RTVSPost2010Prop32
280
     0
102
RTVSPost2010PropOp32
 70
     0
102
RTVSPost2010Prop33
280
     0
102
RTVSPost2010PropOp33
 70
     0
102
RTVSPost2010Prop34
280
     0
102
RTVSPost2010PropOp34
 70
     0
102
RTVSPost2010Prop35
280
     0
102
RTVSPost2010PropOp35
 70
     0
102
RTVSPost2010Prop36
280
     0
102
RTVSPost2010PropOp36
 70
     0
102
RTVSPost2010Prop37
 90
       50
102
RTVSPost2010PropOp37
 70
     0
102
RTVSPost2010Prop38
140
0.0
102
RTVSPost2010PropOp38
 70
     0
102
RTVSPost2010Prop39
140
1.0
102
RTVSPost2010PropOp39
 70
     0
102
RTVSPost2010Prop40
 90
        0
102
RTVSPost2010PropOp40
 70
     0
102
RTVSPost2010Prop41ColorIndex
 90
       18
102
RTVSPost2010Prop41ColorRGB
 90
        0
102
RTVSPost2010PropOp41
 70
     0
102
RTVSPost2010Prop42
 90
       50
102
RTVSPost2010PropOp42
 70
     0
102
RTVSPost2010Prop43
 90
        3
102
RTVSPost2010PropOp43
 70
     0
102
RTVSPost2010Prop44ColorIndex
 90
        5
102
RTVSPost2010Prop44ColorRGB
 90
      255
102
RTVSPost2010PropOp44
 70
     0
102
RTVSPost2010Prop45
280
     0
102
RTVSPost2010PropOp45
 70
     0
102
RTVSPost2010Prop46
 90
       50
102
RTVSPost2010PropOp46
 70
     0
102
RTVSPost2010Prop47
 90
       50
102
RTVSPost2010PropOp47
 70
     0
102
RTVSPost2010Prop48
 90
       50
102
RTVSPost2010PropOp48
 70
     0
102
RTVSPost2010Prop49
280
     0
102
RTVSPost2010PropOp49
 70
     0
102
RTVSPost2010Prop50
 90
       50
102
RTVSPost2010PropOp50
 70
     0
102
RTVSPost2010Prop51ColorIndex
 90
      256
102
RTVSPost2010Prop51ColorRGB
 90
-16777216
102
RTVSPost2010PropOp51
 70
     0
102
RTVSPost2010Prop52
140
1.0
102
RTVSPost2010PropOp52
 70
     0
102
RTVSPost2010Prop53
 90
        2
102
RTVSPost2010PropOp53
 70
     0
102
RTVSPost2010Prop54
  1
strokes_ogs.tif
102
RTVSPost2010PropOp54
 70
     0
102
RTVSPost2010Prop55
280
     0
102
RTVSPost2010PropOp55
 70
     0
102
RTVSPost2010Prop56
140
1.0
102
RTVSPost2010PropOp56
 70
     0
102
RTVSPost2010Prop57
140
1.0
102
RTVSPost2010PropOp57
 70
     0
102
RTVSPropertyOp0
 70
     0
102
RTVSPropertyOp1
 70
     0
102
RTVSPropertyOp2
 70
     0
102
RTVSPropertyOp3
 70
     0
102
RTVSPropertyOp4
 70
     0
102
RTVSPropertyOp5
 70
     0
102
RTVSPropertyOp6
 70
     0
102
RTVSPropertyOp7
 70
     0
102
RTVSPropertyOp8
 70
     0
102
RTVSPropertyOp9
 70
     0
102
RTVSPropertyOp10
 70
     0
102
RTVSPropertyOp11
 70
     0
102
RTVSPropertyOp12
 70
     0
102
RTVSPropertyOp13
 70
     0
102
RTVSPropertyOp14
 70
     2
102
RTVSPropertyOp15
 70
     0
102
RTVSPropertyOp16
 70
     0
102
RTVSPropertyOp17
 70
     0
102
RTVSPropertyOp18
 70
     0
102
RTVSPropertyOp19
 70
     0
102
RTVSPropertyOp20
 70
     0
102
RTVSPropertyOp21
 70
     0
102
RTVSPropertyOp22
 70
     0
102
RTVSPropertyOp23
 70
     0
102
RTVSPropertyOp24
 70
     0
102
RTVSPropertyOp25
 70
     0
102
RTVSPropertyOp26
 70
     0
102
RTVSPropertyOp27
 70
     0
102
RTVSPropertyOp28
 70
     0
102
RTVSPropertyOp29
 70
     0
102
RTVSPropertyOp30
 70
     0
102
RTVSPropertyOp31
 70
     0
102
RTVSPropertyOp32
 70
     0
102
RTVSPropertyOp33
 70
     0
102
RTVSPropertyOp34
 70
     0
102
RTVSPropertyOp35
 70
     0
102
RTVSPropertyOp36
 70
     0
102
RTVSPropertyOp37
 70
     0
102
RTVSPropertyOp38
 70
     0
102
RTVSPropertyOp39
 70
     0
102
RTVSPropertyOp40
 70
     0
102
RTVSPropertyOp41
 70
     0
102
RTVSPropertyOp42
 70
     0
102
RTVSPropertyOp43
 70
     0
102
RTVSPropertyOp44
 70
     0
102
RTVSPropertyOp45
 70
     0
102
RTVSPropertyOp46
 70
     0
102
RTVSPropertyOp47
 70
     0
102
RTVSPropertyOp48
 70
     0
102
RTVSPropertyOp49
 70
     0
102
RTVSPropertyOp50
 70
     0
102
RTVSPropertyOp51
 70
     0
102
RTVSPropertyOp52
 70
     0
102
RTVSPropertyOp53
 70
     0
102
RTVSPropertyOp54
 70
     0
102
RTVSPropertyOp55
 70
     0
102
RTVSPropertyOp56
 70
     0
102
RTVSPropertyOp57
 70
     0
102
RTVSPropertyOp58
 70
     0
102
RTVSPropertyOp59
 70
     0
102
RTVSPropertyOp60
 70
     0
102
RTVSPropertyOp61
 70
     0
102
RTVSPropertyOp62
 70
     0
  0
XRECORD
  5
284
102
{ACAD_REACTORS
330
283
102
}
330
283
100
AcDbXrecord
280
     1
102
RTVSPost2010Prop28
280
     0
102
RTVSPost2010PropOp28
 70
     1
102
RTVSPost2010Prop29
280
     1
102
RTVSPost2010PropOp29
 70
     1
102
RTVSPost2010Prop30
280
     1
102
RTVSPost2010PropOp30
 70
     1
102
RTVSPost2010Prop31
280
     0
102
RTVSPost2010PropOp31
 70
     1
102
RTVSPost2010Prop32
280
     0
102
RTVSPost2010PropOp32
 70
     1
102
RTVSPost2010Prop33
280
     0
102
RTVSPost2010PropOp33
 70
     1
102
RTVSPost2010Prop34
280
     0
102
RTVSPost2010PropOp34
 70
     1
102
RTVSPost2010Prop35
280
     0
102
RTVSPost2010PropOp35
 70
     1
102
RTVSPost2010Prop36
280
     0
102
RTVSPost2010PropOp36
 70
     1
102
RTVSPost2010Prop37
 90
       50
102
RTVSPost2010PropOp37
 70
     1
102
RTVSPost2010Prop38
140
0.0
102
RTVSPost2010PropOp38
 70
     1
102
RTVSPost2010Prop39
140
1.0
102
RTVSPost2010PropOp39
 70
     1
102
RTVSPost2010Prop40
 90
        0
102
RTVSPost2010PropOp40
 70
     1
102
RTVSPost2010Prop41ColorIndex
 90
       18
102
RTVSPost2010Prop41ColorRGB
 90
        0
102
RTVSPost2010PropOp41
 70
     1
102
RTVSPost2010Prop42
 90
       50
102
RTVSPost2010PropOp42
 70
     1
102
RTVSPost2010Prop43
 90
        3
102
RTVSPost2010PropOp43
 70
     1
102
RTVSPost2010Prop44ColorIndex
 90
        5
102
RTVSPost2010Prop44ColorRGB
 90
      255
102
RTVSPost2010PropOp44
 70
     1
102
RTVSPost2010Prop45
280
     0
102
RTVSPost2010PropOp45
 70
     1
102
RTVSPost2010Prop46
 90
       50
102
RTVSPost2010PropOp46
 70
     1
102
RTVSPost2010Prop47
 90
       50
102
RTVSPost2010PropOp47
 70
     1
102
RTVSPost2010Prop48
 90
       50
102
RTVSPost2010PropOp48
 70
     1
102
RTVSPost2010Prop49
280
     0
102
RTVSPost2010PropOp49
 70
     1
102
RTVSPost2010Prop50
 90
       50
102
RTVSPost2010PropOp50
 70
     1
102
RTVSPost2010Prop51ColorIndex
 90
      256
102
RTVSPost2010Prop51ColorRGB
 90
-16777216
102
RTVSPost2010PropOp51
 70
     0
102
RTVSPost2010Prop52
140
1.0
102
RTVSPost2010PropOp52
 70
     0
102
RTVSPost2010Prop53
 90
        2
102
RTVSPost2010PropOp53
 70
     1
102
RTVSPost2010Prop54
  1
strokes_ogs.tif
102
RTVSPost2010PropOp54
 70
     1
102
RTVSPost2010Prop55
280
     0
102
RTVSPost2010PropOp55
 70
     1
102
RTVSPost2010Prop56
140
1.0
102
RTVSPost2010PropOp56
 70
     1
102
RTVSPost2010Prop57
140
1.0
102
RTVSPost2010PropOp57
 70
     1
102
RTVSPropertyOp0
 70
     1
102
RTVSPropertyOp1
 70
     1
102
RTVSPropertyOp2
 70
     1
102
RTVSPropertyOp3
 70
     1
102
RTVSPropertyOp4
 70
     1
102
RTVSPropertyOp5
 70
     1
102
RTVSPropertyOp6
 70
     1
102
RTVSPropertyOp7
 70
     1
102
RTVSPropertyOp8
 70
     1
102
RTVSPropertyOp9
 70
     1
102
RTVSPropertyOp10
 70
     1
102
RTVSPropertyOp11
 70
     1
102
RTVSPropertyOp12
 70
     1
102
RTVSPropertyOp13
 70
     1
102
RTVSPropertyOp14
 70
     1
102
RTVSPropertyOp15
 70
     1
102
RTVSPropertyOp16
 70
     1
102
RTVSPropertyOp17
 70
     1
102
RTVSPropertyOp18
 70
     1
102
RTVSPropertyOp19
 70
     1
102
RTVSPropertyOp20
 70
     1
102
RTVSPropertyOp21
 70
     1
102
RTVSPropertyOp22
 70
     1
102
RTVSPropertyOp23
 70
     1
102
RTVSPropertyOp24
 70
     1
102
RTVSPropertyOp25
 70
     1
102
RTVSPropertyOp26
 70
     1
102
RTVSPropertyOp27
 70
     1
102
RTVSPropertyOp28
 70
     1
102
RTVSPropertyOp29
 70
     1
102
RTVSPropertyOp30
 70
     1
102
RTVSPropertyOp31
 70
     1
102
RTVSPropertyOp32
 70
     1
102
RTVSPropertyOp33
 70
     1
102
RTVSPropertyOp34
 70
     1
102
RTVSPropertyOp35
 70
     1
102
RTVSPropertyOp36
 70
     1
102
RTVSPropertyOp37
 70
     1
102
RTVSPropertyOp38
 70
     1
102
RTVSPropertyOp39
 70
     1
102
RTVSPropertyOp40
 70
     1
102
RTVSPropertyOp41
 70
     1
102
RTVSPropertyOp42
 70
     1
102
RTVSPropertyOp43
 70
     1
102
RTVSPropertyOp44
 70
     1
102
RTVSPropertyOp45
 70
     1
102
RTVSPropertyOp46
 70
     1
102
RTVSPropertyOp47
 70
     1
102
RTVSPropertyOp48
 70
     1
102
RTVSPropertyOp49
 70
     1
102
RTVSPropertyOp50
 70
     1
102
RTVSPropertyOp51
 70
     0
102
RTVSPropertyOp52
 70
     0
102
RTVSPropertyOp53
 70
     1
102
RTVSPropertyOp54
 70
     1
102
RTVSPropertyOp55
 70
     1
102
RTVSPropertyOp56
 70
     1
102
RTVSPropertyOp57
 70
     1
102
RTVSPropertyOp58
 70
     1
102
RTVSPropertyOp59
 70
     1
102
RTVSPropertyOp60
 70
     1
102
RTVSPropertyOp61
 70
     1
102
RTVSPropertyOp62
 70
     1
  0
XRECORD
  5
29A
102
{ACAD_REACTORS
330
299
102
}
330
299
100
AcDbXrecord
280
     1
102
RTVSPost2010Prop28
280
     0
102
RTVSPost2010PropOp28
 70
     1
102
RTVSPost2010Prop29
280
     1
102
RTVSPost2010PropOp29
 70
     1
102
RTVSPost2010Prop30
280
     1
102
RTVSPost2010PropOp30
 70
     1
102
RTVSPost2010Prop31
280
     0
102
RTVSPost2010PropOp31
 70
     1
102
RTVSPost2010Prop32
280
     0
102
RTVSPost2010PropOp32
 70
     1
102
RTVSPost2010Prop33
280
     0
102
RTVSPost2010PropOp33
 70
     1
102
RTVSPost2010Prop34
280
     0
102
RTVSPost2010PropOp34
 70
     1
102
RTVSPost2010Prop35
280
     0
102
RTVSPost2010PropOp35
 70
     1
102
RTVSPost2010Prop36
280
     0
102
RTVSPost2010PropOp36
 70
     1
102
RTVSPost2010Prop37
 90
       50
102
RTVSPost2010PropOp37
 70
     1
102
RTVSPost2010Prop38
140
0.0
102
RTVSPost2010PropOp38
 70
     1
102
RTVSPost2010Prop39
140
1.0
102
RTVSPost2010PropOp39
 70
     1
102
RTVSPost2010Prop40
 90
        0
102
RTVSPost2010PropOp40
 70
     1
102
RTVSPost2010Prop41ColorIndex
 90
       18
102
RTVSPost2010Prop41ColorRGB
 90
        0
102
RTVSPost2010PropOp41
 70
     1
102
RTVSPost2010Prop42
 90
       50
102
RTVSPost2010PropOp42
 70
     1
102
RTVSPost2010Prop43
 90
        3
102
RTVSPost2010PropOp43
 70
     1
102
RTVSPost2010Prop44ColorIndex
 90
        5
102
RTVSPost2010Prop44ColorRGB
 90
      255
102
RTVSPost2010PropOp44
 70
     1
102
RTVSPost2010Prop45
280
     0
102
RTVSPost2010PropOp45
 70
     1
102
RTVSPost2010Prop46
 90
       50
102
RTVSPost2010PropOp46
 70
     1
102
RTVSPost2010Prop47
 90
       50
102
RTVSPost2010PropOp47
 70
     1
102
RTVSPost2010Prop48
 90
       50
102
RTVSPost2010PropOp48
 70
     1
102
RTVSPost2010Prop49
280
     0
102
RTVSPost2010PropOp49
 70
     1
102
RTVSPost2010Prop50
 90
       50
102
RTVSPost2010PropOp50
 70
     1
102
RTVSPost2010Prop51ColorIndex
 90
      256
102
RTVSPost2010Prop51ColorRGB
 90
-16777216
102
RTVSPost2010PropOp51
 70
     0
102
RTVSPost2010Prop52
140
1.0
102
RTVSPost2010PropOp52
 70
     0
102
RTVSPost2010Prop53
 90
        2
102
RTVSPost2010PropOp53
 70
     1
102
RTVSPost2010Prop54
  1
strokes_ogs.tif
102
RTVSPost2010PropOp54
 70
     1
102
RTVSPost2010Prop55
280
     0
102
RTVSPost2010PropOp55
 70
     1
102
RTVSPost2010Prop56
140
1.0
102
RTVSPost2010PropOp56
 70
     1
102
RTVSPost2010Prop57
140
1.0
102
RTVSPost2010PropOp57
 70
     1
102
RTVSPropertyOp0
 70
     1
102
RTVSPropertyOp1
 70
     1
102
RTVSPropertyOp2
 70
     1
102
RTVSPropertyOp3
 70
     1
102
RTVSPropertyOp4
 70
     1
102
RTVSPropertyOp5
 70
     1
102
RTVSPropertyOp6
 70
     1
102
RTVSPropertyOp7
 70
     1
102
RTVSPropertyOp8
 70
     1
102
RTVSPropertyOp9
 70
     1
102
RTVSPropertyOp10
 70
     1
102
RTVSPropertyOp11
 70
     1
102
RTVSPropertyOp12
 70
     1
102
RTVSPropertyOp13
 70
     1
102
RTVSPropertyOp14
 70
     1
102
RTVSPropertyOp15
 70
     1
102
RTVSPropertyOp16
 70
     1
102
RTVSPropertyOp17
 70
     1
102
RTVSPropertyOp18
 70
     1
102
RTVSPropertyOp19
 70
     1
102
RTVSPropertyOp20
 70
     1
102
RTVSPropertyOp21
 70
     1
102
RTVSPropertyOp22
 70
     1
102
RTVSPropertyOp23
 70
     1
102
RTVSPropertyOp24
 70
     1
102
RTVSPropertyOp25
 70
     1
102
RTVSPropertyOp26
 70
     1
102
RTVSPropertyOp27
 70
     1
102
RTVSPropertyOp28
 70
     1
102
RTVSPropertyOp29
 70
     1
102
RTVSPropertyOp30
 70
     1
102
RTVSPropertyOp31
 70
     1
102
RTVSPropertyOp32
 70
     1
102
RTVSPropertyOp33
 70
     1
102
RTVSPropertyOp34
 70
     1
102
RTVSPropertyOp35
 70
     1
102
RTVSPropertyOp36
 70
     1
102
RTVSPropertyOp37
 70
     1
102
RTVSPropertyOp38
 70
     1
102
RTVSPropertyOp39
 70
     1
102
RTVSPropertyOp40
 70
     1
102
RTVSPropertyOp41
 70
     1
102
RTVSPropertyOp42
 70
     1
102
RTVSPropertyOp43
 70
     1
102
RTVSPropertyOp44
 70
     1
102
RTVSPropertyOp45
 70
     1
102
RTVSPropertyOp46
 70
     1
102
RTVSPropertyOp47
 70
     1
102
RTVSPropertyOp48
 70
     1
102
RTVSPropertyOp49
 70
     1
102
RTVSPropertyOp50
 70
     1
102
RTVSPropertyOp51
 70
     0
102
RTVSPropertyOp52
 70
     0
102
RTVSPropertyOp53
 70
     1
102
RTVSPropertyOp54
 70
     1
102
RTVSPropertyOp55
 70
     1
102
RTVSPropertyOp56
 70
     1
102
RTVSPropertyOp57
 70
     1
102
RTVSPropertyOp58
 70
     1
102
RTVSPropertyOp59
 70
     1
102
RTVSPropertyOp60
 70
     1
102
RTVSPropertyOp61
 70
     1
102
RTVSPropertyOp62
 70
     1
  0
XRECORD
  5
298
102
{ACAD_REACTORS
330
297
102
}
330
297
100
AcDbXrecord
280
     1
102
RTVSPost2010Prop28
280
     0
102
RTVSPost2010PropOp28
 70
     1
102
RTVSPost2010Prop29
280
     1
102
RTVSPost2010PropOp29
 70
     1
102
RTVSPost2010Prop30
280
     1
102
RTVSPost2010PropOp30
 70
     1
102
RTVSPost2010Prop31
280
     0
102
RTVSPost2010PropOp31
 70
     1
102
RTVSPost2010Prop32
280
     0
102
RTVSPost2010PropOp32
 70
     1
102
RTVSPost2010Prop33
280
     0
102
RTVSPost2010PropOp33
 70
     1
102
RTVSPost2010Prop34
280
     0
102
RTVSPost2010PropOp34
 70
     1
102
RTVSPost2010Prop35
280
     0
102
RTVSPost2010PropOp35
 70
     1
102
RTVSPost2010Prop36
280
     0
102
RTVSPost2010PropOp36
 70
     1
102
RTVSPost2010Prop37
 90
       50
102
RTVSPost2010PropOp37
 70
     1
102
RTVSPost2010Prop38
140
0.0
102
RTVSPost2010PropOp38
 70
     1
102
RTVSPost2010Prop39
140
1.0
102
RTVSPost2010PropOp39
 70
     1
102
RTVSPost2010Prop40
 90
        0
102
RTVSPost2010PropOp40
 70
     1
102
RTVSPost2010Prop41ColorIndex
 90
       18
102
RTVSPost2010Prop41ColorRGB
 90
        0
102
RTVSPost2010PropOp41
 70
     1
102
RTVSPost2010Prop42
 90
       50
102
RTVSPost2010PropOp42
 70
     1
102
RTVSPost2010Prop43
 90
        3
102
RTVSPost2010PropOp43
 70
     1
102
RTVSPost2010Prop44ColorIndex
 90
        5
102
RTVSPost2010Prop44ColorRGB
 90
      255
102
RTVSPost2010PropOp44
 70
     1
102
RTVSPost2010Prop45
280
     0
102
RTVSPost2010PropOp45
 70
     1
102
RTVSPost2010Prop46
 90
       50
102
RTVSPost2010PropOp46
 70
     1
102
RTVSPost2010Prop47
 90
       50
102
RTVSPost2010PropOp47
 70
     1
102
RTVSPost2010Prop48
 90
       50
102
RTVSPost2010PropOp48
 70
     1
102
RTVSPost2010Prop49
280
     0
102
RTVSPost2010PropOp49
 70
     1
102
RTVSPost2010Prop50
 90
       50
102
RTVSPost2010PropOp50
 70
     1
102
RTVSPost2010Prop51ColorIndex
 90
      256
102
RTVSPost2010Prop51ColorRGB
 90
-16777216
102
RTVSPost2010PropOp51
 70
     0
102
RTVSPost2010Prop52
140
1.0
102
RTVSPost2010PropOp52
 70
     0
102
RTVSPost2010Prop53
 90
        2
102
RTVSPost2010PropOp53
 70
     1
102
RTVSPost2010Prop54
  1
strokes_ogs.tif
102
RTVSPost2010PropOp54
 70
     1
102
RTVSPost2010Prop55
280
     0
102
RTVSPost2010PropOp55
 70
     1
102
RTVSPost2010Prop56
140
1.0
102
RTVSPost2010PropOp56
 70
     1
102
RTVSPost2010Prop57
140
1.0
102
RTVSPost2010PropOp57
 70
     1
102
RTVSPropertyOp0
 70
     1
102
RTVSPropertyOp1
 70
     1
102
RTVSPropertyOp2
 70
     1
102
RTVSPropertyOp3
 70
     1
102
RTVSPropertyOp4
 70
     1
102
RTVSPropertyOp5
 70
     1
102
RTVSPropertyOp6
 70
     1
102
RTVSPropertyOp7
 70
     1
102
RTVSPropertyOp8
 70
     1
102
RTVSPropertyOp9
 70
     1
102
RTVSPropertyOp10
 70
     1
102
RTVSPropertyOp11
 70
     1
102
RTVSPropertyOp12
 70
     1
102
RTVSPropertyOp13
 70
     1
102
RTVSPropertyOp14
 70
     1
102
RTVSPropertyOp15
 70
     1
102
RTVSPropertyOp16
 70
     1
102
RTVSPropertyOp17
 70
     1
102
RTVSPropertyOp18
 70
     1
102
RTVSPropertyOp19
 70
     1
102
RTVSPropertyOp20
 70
     1
102
RTVSPropertyOp21
 70
     1
102
RTVSPropertyOp22
 70
     1
102
RTVSPropertyOp23
 70
     1
102
RTVSPropertyOp24
 70
     1
102
RTVSPropertyOp25
 70
     1
102
RTVSPropertyOp26
 70
     1
102
RTVSPropertyOp27
 70
     1
102
RTVSPropertyOp28
 70
     1
102
RTVSPropertyOp29
 70
     1
102
RTVSPropertyOp30
 70
     1
102
RTVSPropertyOp31
 70
     1
102
RTVSPropertyOp32
 70
     1
102
RTVSPropertyOp33
 70
     1
102
RTVSPropertyOp34
 70
     1
102
RTVSPropertyOp35
 70
     1
102
RTVSPropertyOp36
 70
     1
102
RTVSPropertyOp37
 70
     1
102
RTVSPropertyOp38
 70
     1
102
RTVSPropertyOp39
 70
     1
102
RTVSPropertyOp40
 70
     1
102
RTVSPropertyOp41
 70
     1
102
RTVSPropertyOp42
 70
     1
102
RTVSPropertyOp43
 70
     1
102
RTVSPropertyOp44
 70
     1
102
RTVSPropertyOp45
 70
     1
102
RTVSPropertyOp46
 70
     1
102
RTVSPropertyOp47
 70
     1
102
RTVSPropertyOp48
 70
     1
102
RTVSPropertyOp49
 70
     1
102
RTVSPropertyOp50
 70
     1
102
RTVSPropertyOp51
 70
     0
102
RTVSPropertyOp52
 70
     0
102
RTVSPropertyOp53
 70
     1
102
RTVSPropertyOp54
 70
     1
102
RTVSPropertyOp55
 70
     1
102
RTVSPropertyOp56
 70
     1
102
RTVSPropertyOp57
 70
     1
102
RTVSPropertyOp58
 70
     1
102
RTVSPropertyOp59
 70
     1
102
RTVSPropertyOp60
 70
     1
102
RTVSPropertyOp61
 70
     1
102
RTVSPropertyOp62
 70
     1
  0
XRECORD
  5
292
102
{ACAD_REACTORS
330
291
102
}
330
291
100
AcDbXrecord
280
     1
102
RTVSPost2010Prop28
280
     0
102
RTVSPost2010PropOp28
 70
     1
102
RTVSPost2010Prop29
280
     1
102
RTVSPost2010PropOp29
 70
     1
102
RTVSPost2010Prop30
280
     1
102
RTVSPost2010PropOp30
 70
     1
102
RTVSPost2010Prop31
280
     0
102
RTVSPost2010PropOp31
 70
     1
102
RTVSPost2010Prop32
280
     0
102
RTVSPost2010PropOp32
 70
     1
102
RTVSPost2010Prop33
280
     0
102
RTVSPost2010PropOp33
 70
     1
102
RTVSPost2010Prop34
280
     0
102
RTVSPost2010PropOp34
 70
     1
102
RTVSPost2010Prop35
280
     0
102
RTVSPost2010PropOp35
 70
     1
102
RTVSPost2010Prop36
280
     0
102
RTVSPost2010PropOp36
 70
     1
102
RTVSPost2010Prop37
 90
       50
102
RTVSPost2010PropOp37
 70
     1
102
RTVSPost2010Prop38
140
0.0
102
RTVSPost2010PropOp38
 70
     1
102
RTVSPost2010Prop39
140
1.0
102
RTVSPost2010PropOp39
 70
     1
102
RTVSPost2010Prop40
 90
        0
102
RTVSPost2010PropOp40
 70
     1
102
RTVSPost2010Prop41ColorIndex
 90
       18
102
RTVSPost2010Prop41ColorRGB
 90
        0
102
RTVSPost2010PropOp41
 70
     1
102
RTVSPost2010Prop42
 90
       50
102
RTVSPost2010PropOp42
 70
     1
102
RTVSPost2010Prop43
 90
        3
102
RTVSPost2010PropOp43
 70
     1
102
RTVSPost2010Prop44ColorIndex
 90
        5
102
RTVSPost2010Prop44ColorRGB
 90
      255
102
RTVSPost2010PropOp44
 70
     1
102
RTVSPost2010Prop45
280
     0
102
RTVSPost2010PropOp45
 70
     1
102
RTVSPost2010Prop46
 90
       50
102
RTVSPost2010PropOp46
 70
     1
102
RTVSPost2010Prop47
 90
       50
102
RTVSPost2010PropOp47
 70
     1
102
RTVSPost2010Prop48
 90
       50
102
RTVSPost2010PropOp48
 70
     1
102
RTVSPost2010Prop49
280
     0
102
RTVSPost2010PropOp49
 70
     1
102
RTVSPost2010Prop50
 90
       50
102
RTVSPost2010PropOp50
 70
     1
102
RTVSPost2010Prop51ColorIndex
 90
      256
102
RTVSPost2010Prop51ColorRGB
 90
-16777216
102
RTVSPost2010PropOp51
 70
     0
102
RTVSPost2010Prop52
140
1.0
102
RTVSPost2010PropOp52
 70
     0
102
RTVSPost2010Prop53
 90
        2
102
RTVSPost2010PropOp53
 70
     1
102
RTVSPost2010Prop54
  1
strokes_ogs.tif
102
RTVSPost2010PropOp54
 70
     1
102
RTVSPost2010Prop55
280
     0
102
RTVSPost2010PropOp55
 70
     1
102
RTVSPost2010Prop56
140
1.0
102
RTVSPost2010PropOp56
 70
     1
102
RTVSPost2010Prop57
140
1.0
102
RTVSPost2010PropOp57
 70
     1
102
RTVSPropertyOp0
 70
     1
102
RTVSPropertyOp1
 70
     1
102
RTVSPropertyOp2
 70
     1
102
RTVSPropertyOp3
 70
     1
102
RTVSPropertyOp4
 70
     1
102
RTVSPropertyOp5
 70
     1
102
RTVSPropertyOp6
 70
     1
102
RTVSPropertyOp7
 70
     1
102
RTVSPropertyOp8
 70
     1
102
RTVSPropertyOp9
 70
     1
102
RTVSPropertyOp10
 70
     1
102
RTVSPropertyOp11
 70
     1
102
RTVSPropertyOp12
 70
     1
102
RTVSPropertyOp13
 70
     1
102
RTVSPropertyOp14
 70
     1
102
RTVSPropertyOp15
 70
     1
102
RTVSPropertyOp16
 70
     1
102
RTVSPropertyOp17
 70
     1
102
RTVSPropertyOp18
 70
     1
102
RTVSPropertyOp19
 70
     1
102
RTVSPropertyOp20
 70
     1
102
RTVSPropertyOp21
 70
     1
102
RTVSPropertyOp22
 70
     1
102
RTVSPropertyOp23
 70
     1
102
RTVSPropertyOp24
 70
     1
102
RTVSPropertyOp25
 70
     1
102
RTVSPropertyOp26
 70
     1
102
RTVSPropertyOp27
 70
     1
102
RTVSPropertyOp28
 70
     1
102
RTVSPropertyOp29
 70
     1
102
RTVSPropertyOp30
 70
     1
102
RTVSPropertyOp31
 70
     1
102
RTVSPropertyOp32
 70
     1
102
RTVSPropertyOp33
 70
     1
102
RTVSPropertyOp34
 70
     1
102
RTVSPropertyOp35
 70
     1
102
RTVSPropertyOp36
 70
     1
102
RTVSPropertyOp37
 70
     1
102
RTVSPropertyOp38
 70
     1
102
RTVSPropertyOp39
 70
     1
102
RTVSPropertyOp40
 70
     1
102
RTVSPropertyOp41
 70
     1
102
RTVSPropertyOp42
 70
     1
102
RTVSPropertyOp43
 70
     1
102
RTVSPropertyOp44
 70
     1
102
RTVSPropertyOp45
 70
     1
102
RTVSPropertyOp46
 70
     1
102
RTVSPropertyOp47
 70
     1
102
RTVSPropertyOp48
 70
     1
102
RTVSPropertyOp49
 70
     1
102
RTVSPropertyOp50
 70
     1
102
RTVSPropertyOp51
 70
     0
102
RTVSPropertyOp52
 70
     0
102
RTVSPropertyOp53
 70
     1
102
RTVSPropertyOp54
 70
     1
102
RTVSPropertyOp55
 70
     1
102
RTVSPropertyOp56
 70
     1
102
RTVSPropertyOp57
 70
     1
102
RTVSPropertyOp58
 70
     1
102
RTVSPropertyOp59
 70
     1
102
RTVSPropertyOp60
 70
     1
102
RTVSPropertyOp61
 70
     1
102
RTVSPropertyOp62
 70
     1
  0
XRECORD
  5
294
102
{ACAD_REACTORS
330
293
102
}
330
293
100
AcDbXrecord
280
     1
102
RTVSPost2010Prop28
280
     0
102
RTVSPost2010PropOp28
 70
     1
102
RTVSPost2010Prop29
280
     1
102
RTVSPost2010PropOp29
 70
     1
102
RTVSPost2010Prop30
280
     1
102
RTVSPost2010PropOp30
 70
     1
102
RTVSPost2010Prop31
280
     0
102
RTVSPost2010PropOp31
 70
     1
102
RTVSPost2010Prop32
280
     0
102
RTVSPost2010PropOp32
 70
     1
102
RTVSPost2010Prop33
280
     0
102
RTVSPost2010PropOp33
 70
     1
102
RTVSPost2010Prop34
280
     0
102
RTVSPost2010PropOp34
 70
     1
102
RTVSPost2010Prop35
280
     0
102
RTVSPost2010PropOp35
 70
     1
102
RTVSPost2010Prop36
280
     0
102
RTVSPost2010PropOp36
 70
     1
102
RTVSPost2010Prop37
 90
       50
102
RTVSPost2010PropOp37
 70
     1
102
RTVSPost2010Prop38
140
0.0
102
RTVSPost2010PropOp38
 70
     1
102
RTVSPost2010Prop39
140
1.0
102
RTVSPost2010PropOp39
 70
     1
102
RTVSPost2010Prop40
 90
        0
102
RTVSPost2010PropOp40
 70
     1
102
RTVSPost2010Prop41ColorIndex
 90
       18
102
RTVSPost2010Prop41ColorRGB
 90
        0
102
RTVSPost2010PropOp41
 70
     1
102
RTVSPost2010Prop42
 90
       50
102
RTVSPost2010PropOp42
 70
     1
102
RTVSPost2010Prop43
 90
        3
102
RTVSPost2010PropOp43
 70
     1
102
RTVSPost2010Prop44ColorIndex
 90
        5
102
RTVSPost2010Prop44ColorRGB
 90
      255
102
RTVSPost2010PropOp44
 70
     1
102
RTVSPost2010Prop45
280
     0
102
RTVSPost2010PropOp45
 70
     1
102
RTVSPost2010Prop46
 90
       50
102
RTVSPost2010PropOp46
 70
     1
102
RTVSPost2010Prop47
 90
       50
102
RTVSPost2010PropOp47
 70
     1
102
RTVSPost2010Prop48
 90
       50
102
RTVSPost2010PropOp48
 70
     1
102
RTVSPost2010Prop49
280
     0
102
RTVSPost2010PropOp49
 70
     1
102
RTVSPost2010Prop50
 90
       50
102
RTVSPost2010PropOp50
 70
     1
102
RTVSPost2010Prop51ColorIndex
 90
      256
102
RTVSPost2010Prop51ColorRGB
 90
-16777216
102
RTVSPost2010PropOp51
 70
     0
102
RTVSPost2010Prop52
140
1.0
102
RTVSPost2010PropOp52
 70
     0
102
RTVSPost2010Prop53
 90
        2
102
RTVSPost2010PropOp53
 70
     1
102
RTVSPost2010Prop54
  1
strokes_ogs.tif
102
RTVSPost2010PropOp54
 70
     1
102
RTVSPost2010Prop55
280
     0
102
RTVSPost2010PropOp55
 70
     1
102
RTVSPost2010Prop56
140
1.0
102
RTVSPost2010PropOp56
 70
     1
102
RTVSPost2010Prop57
140
1.0
102
RTVSPost2010PropOp57
 70
     1
102
RTVSPropertyOp0
 70
     1
102
RTVSPropertyOp1
 70
     1
102
RTVSPropertyOp2
 70
     1
102
RTVSPropertyOp3
 70
     1
102
RTVSPropertyOp4
 70
     1
102
RTVSPropertyOp5
 70
     1
102
RTVSPropertyOp6
 70
     1
102
RTVSPropertyOp7
 70
     1
102
RTVSPropertyOp8
 70
     1
102
RTVSPropertyOp9
 70
     1
102
RTVSPropertyOp10
 70
     1
102
RTVSPropertyOp11
 70
     1
102
RTVSPropertyOp12
 70
     1
102
RTVSPropertyOp13
 70
     1
102
RTVSPropertyOp14
 70
     1
102
RTVSPropertyOp15
 70
     1
102
RTVSPropertyOp16
 70
     1
102
RTVSPropertyOp17
 70
     1
102
RTVSPropertyOp18
 70
     1
102
RTVSPropertyOp19
 70
     1
102
RTVSPropertyOp20
 70
     1
102
RTVSPropertyOp21
 70
     1
102
RTVSPropertyOp22
 70
     1
102
RTVSPropertyOp23
 70
     1
102
RTVSPropertyOp24
 70
     1
102
RTVSPropertyOp25
 70
     1
102
RTVSPropertyOp26
 70
     1
102
RTVSPropertyOp27
 70
     1
102
RTVSPropertyOp28
 70
     1
102
RTVSPropertyOp29
 70
     1
102
RTVSPropertyOp30
 70
     1
102
RTVSPropertyOp31
 70
     1
102
RTVSPropertyOp32
 70
     1
102
RTVSPropertyOp33
 70
     1
102
RTVSPropertyOp34
 70
     1
102
RTVSPropertyOp35
 70
     1
102
RTVSPropertyOp36
 70
     1
102
RTVSPropertyOp37
 70
     1
102
RTVSPropertyOp38
 70
     1
102
RTVSPropertyOp39
 70
     1
102
RTVSPropertyOp40
 70
     1
102
RTVSPropertyOp41
 70
     1
102
RTVSPropertyOp42
 70
     1
102
RTVSPropertyOp43
 70
     1
102
RTVSPropertyOp44
 70
     1
102
RTVSPropertyOp45
 70
     1
102
RTVSPropertyOp46
 70
     1
102
RTVSPropertyOp47
 70
     1
102
RTVSPropertyOp48
 70
     1
102
RTVSPropertyOp49
 70
     1
102
RTVSPropertyOp50
 70
     1
102
RTVSPropertyOp51
 70
     0
102
RTVSPropertyOp52
 70
     0
102
RTVSPropertyOp53
 70
     1
102
RTVSPropertyOp54
 70
     1
102
RTVSPropertyOp55
 70
     1
102
RTVSPropertyOp56
 70
     1
102
RTVSPropertyOp57
 70
     1
102
RTVSPropertyOp58
 70
     1
102
RTVSPropertyOp59
 70
     1
102
RTVSPropertyOp60
 70
     1
102
RTVSPropertyOp61
 70
     1
102
RTVSPropertyOp62
 70
     1
  0
XRECORD
  5
28A
102
{ACAD_REACTORS
330
289
102
}
330
289
100
AcDbXrecord
280
     1
102
RTVSPost2010Prop28
280
     0
102
RTVSPost2010PropOp28
 70
     1
102
RTVSPost2010Prop29
280
     1
102
RTVSPost2010PropOp29
 70
     1
102
RTVSPost2010Prop30
280
     1
102
RTVSPost2010PropOp30
 70
     1
102
RTVSPost2010Prop31
280
     0
102
RTVSPost2010PropOp31
 70
     1
102
RTVSPost2010Prop32
280
     0
102
RTVSPost2010PropOp32
 70
     1
102
RTVSPost2010Prop33
280
     0
102
RTVSPost2010PropOp33
 70
     1
102
RTVSPost2010Prop34
280
     0
102
RTVSPost2010PropOp34
 70
     1
102
RTVSPost2010Prop35
280
     0
102
RTVSPost2010PropOp35
 70
     1
102
RTVSPost2010Prop36
280
     0
102
RTVSPost2010PropOp36
 70
     1
102
RTVSPost2010Prop37
 90
       50
102
RTVSPost2010PropOp37
 70
     1
102
RTVSPost2010Prop38
140
0.0
102
RTVSPost2010PropOp38
 70
     1
102
RTVSPost2010Prop39
140
1.0
102
RTVSPost2010PropOp39
 70
     1
102
RTVSPost2010Prop40
 90
        0
102
RTVSPost2010PropOp40
 70
     1
102
RTVSPost2010Prop41ColorIndex
 90
       18
102
RTVSPost2010Prop41ColorRGB
 90
        0
102
RTVSPost2010PropOp41
 70
     1
102
RTVSPost2010Prop42
 90
       50
102
RTVSPost2010PropOp42
 70
     1
102
RTVSPost2010Prop43
 90
        3
102
RTVSPost2010PropOp43
 70
     1
102
RTVSPost2010Prop44ColorIndex
 90
        5
102
RTVSPost2010Prop44ColorRGB
 90
      255
102
RTVSPost2010PropOp44
 70
     1
102
RTVSPost2010Prop45
280
     0
102
RTVSPost2010PropOp45
 70
     1
102
RTVSPost2010Prop46
 90
       50
102
RTVSPost2010PropOp46
 70
     1
102
RTVSPost2010Prop47
 90
       50
102
RTVSPost2010PropOp47
 70
     1
102
RTVSPost2010Prop48
 90
       50
102
RTVSPost2010PropOp48
 70
     1
102
RTVSPost2010Prop49
280
     0
102
RTVSPost2010PropOp49
 70
     1
102
RTVSPost2010Prop50
 90
       50
102
RTVSPost2010PropOp50
 70
     1
102
RTVSPost2010Prop51ColorIndex
 90
      256
102
RTVSPost2010Prop51ColorRGB
 90
-16777216
102
RTVSPost2010PropOp51
 70
     0
102
RTVSPost2010Prop52
140
1.0
102
RTVSPost2010PropOp52
 70
     0
102
RTVSPost2010Prop53
 90
        2
102
RTVSPost2010PropOp53
 70
     1
102
RTVSPost2010Prop54
  1
strokes_ogs.tif
102
RTVSPost2010PropOp54
 70
     1
102
RTVSPost2010Prop55
280
     0
102
RTVSPost2010PropOp55
 70
     1
102
RTVSPost2010Prop56
140
1.0
102
RTVSPost2010PropOp56
 70
     1
102
RTVSPost2010Prop57
140
1.0
102
RTVSPost2010PropOp57
 70
     1
102
RTVSPropertyOp0
 70
     1
102
RTVSPropertyOp1
 70
     1
102
RTVSPropertyOp2
 70
     1
102
RTVSPropertyOp3
 70
     1
102
RTVSPropertyOp4
 70
     1
102
RTVSPropertyOp5
 70
     1
102
RTVSPropertyOp6
 70
     1
102
RTVSPropertyOp7
 70
     1
102
RTVSPropertyOp8
 70
     1
102
RTVSPropertyOp9
 70
     1
102
RTVSPropertyOp10
 70
     1
102
RTVSPropertyOp11
 70
     1
102
RTVSPropertyOp12
 70
     1
102
RTVSPropertyOp13
 70
     1
102
RTVSPropertyOp14
 70
     1
102
RTVSPropertyOp15
 70
     1
102
RTVSPropertyOp16
 70
     1
102
RTVSPropertyOp17
 70
     1
102
RTVSPropertyOp18
 70
     1
102
RTVSPropertyOp19
 70
     1
102
RTVSPropertyOp20
 70
     1
102
RTVSPropertyOp21
 70
     1
102
RTVSPropertyOp22
 70
     1
102
RTVSPropertyOp23
 70
     1
102
RTVSPropertyOp24
 70
     1
102
RTVSPropertyOp25
 70
     1
102
RTVSPropertyOp26
 70
     1
102
RTVSPropertyOp27
 70
     1
102
RTVSPropertyOp28
 70
     1
102
RTVSPropertyOp29
 70
     1
102
RTVSPropertyOp30
 70
     1
102
RTVSPropertyOp31
 70
     1
102
RTVSPropertyOp32
 70
     1
102
RTVSPropertyOp33
 70
     1
102
RTVSPropertyOp34
 70
     1
102
RTVSPropertyOp35
 70
     1
102
RTVSPropertyOp36
 70
     1
102
RTVSPropertyOp37
 70
     1
102
RTVSPropertyOp38
 70
     1
102
RTVSPropertyOp39
 70
     1
102
RTVSPropertyOp40
 70
     1
102
RTVSPropertyOp41
 70
     1
102
RTVSPropertyOp42
 70
     1
102
RTVSPropertyOp43
 70
     1
102
RTVSPropertyOp44
 70
     1
102
RTVSPropertyOp45
 70
     1
102
RTVSPropertyOp46
 70
     1
102
RTVSPropertyOp47
 70
     1
102
RTVSPropertyOp48
 70
     1
102
RTVSPropertyOp49
 70
     1
102
RTVSPropertyOp50
 70
     1
102
RTVSPropertyOp51
 70
     0
102
RTVSPropertyOp52
 70
     0
102
RTVSPropertyOp53
 70
     1
102
RTVSPropertyOp54
 70
     1
102
RTVSPropertyOp55
 70
     1
102
RTVSPropertyOp56
 70
     1
102
RTVSPropertyOp57
 70
     1
102
RTVSPropertyOp58
 70
     1
102
RTVSPropertyOp59
 70
     1
102
RTVSPropertyOp60
 70
     1
102
RTVSPropertyOp61
 70
     1
102
RTVSPropertyOp62
 70
     1
  0
XRECORD
  5
27E
102
{ACAD_REACTORS
330
27D
102
}
330
27D
100
AcDbXrecord
280
     1
102
RTVSPost2010Prop28
280
     0
102
RTVSPost2010PropOp28
 70
     1
102
RTVSPost2010Prop29
280
     1
102
RTVSPost2010PropOp29
 70
     1
102
RTVSPost2010Prop30
280
     1
102
RTVSPost2010PropOp30
 70
     1
102
RTVSPost2010Prop31
280
     0
102
RTVSPost2010PropOp31
 70
     1
102
RTVSPost2010Prop32
280
     0
102
RTVSPost2010PropOp32
 70
     1
102
RTVSPost2010Prop33
280
     0
102
RTVSPost2010PropOp33
 70
     1
102
RTVSPost2010Prop34
280
     0
102
RTVSPost2010PropOp34
 70
     1
102
RTVSPost2010Prop35
280
     0
102
RTVSPost2010PropOp35
 70
     1
102
RTVSPost2010Prop36
280
     0
102
RTVSPost2010PropOp36
 70
     1
102
RTVSPost2010Prop37
 90
       50
102
RTVSPost2010PropOp37
 70
     1
102
RTVSPost2010Prop38
140
0.0
102
RTVSPost2010PropOp38
 70
     1
102
RTVSPost2010Prop39
140
1.0
102
RTVSPost2010PropOp39
 70
     1
102
RTVSPost2010Prop40
 90
        0
102
RTVSPost2010PropOp40
 70
     1
102
RTVSPost2010Prop41ColorIndex
 90
       18
102
RTVSPost2010Prop41ColorRGB
 90
        0
102
RTVSPost2010PropOp41
 70
     1
102
RTVSPost2010Prop42
 90
       50
102
RTVSPost2010PropOp42
 70
     1
102
RTVSPost2010Prop43
 90
        3
102
RTVSPost2010PropOp43
 70
     1
102
RTVSPost2010Prop44ColorIndex
 90
        5
102
RTVSPost2010Prop44ColorRGB
 90
      255
102
RTVSPost2010PropOp44
 70
     1
102
RTVSPost2010Prop45
280
     0
102
RTVSPost2010PropOp45
 70
     1
102
RTVSPost2010Prop46
 90
       50
102
RTVSPost2010PropOp46
 70
     1
102
RTVSPost2010Prop47
 90
       50
102
RTVSPost2010PropOp47
 70
     1
102
RTVSPost2010Prop48
 90
       50
102
RTVSPost2010PropOp48
 70
     1
102
RTVSPost2010Prop49
280
     0
102
RTVSPost2010PropOp49
 70
     1
102
RTVSPost2010Prop50
 90
       50
102
RTVSPost2010PropOp50
 70
     1
102
RTVSPost2010Prop51ColorIndex
 90
      256
102
RTVSPost2010Prop51ColorRGB
 90
-16777216
102
RTVSPost2010PropOp51
 70
     0
102
RTVSPost2010Prop52
140
1.0
102
RTVSPost2010PropOp52
 70
     0
102
RTVSPost2010Prop53
 90
        2
102
RTVSPost2010PropOp53
 70
     1
102
RTVSPost2010Prop54
  1
strokes_ogs.tif
102
RTVSPost2010PropOp54
 70
     1
102
RTVSPost2010Prop55
280
     0
102
RTVSPost2010PropOp55
 70
     1
102
RTVSPost2010Prop56
140
1.0
102
RTVSPost2010PropOp56
 70
     1
102
RTVSPost2010Prop57
140
1.0
102
RTVSPost2010PropOp57
 70
     1
102
RTVSPropertyOp0
 70
     1
102
RTVSPropertyOp1
 70
     1
102
RTVSPropertyOp2
 70
     1
102
RTVSPropertyOp3
 70
     1
102
RTVSPropertyOp4
 70
     1
102
RTVSPropertyOp5
 70
     1
102
RTVSPropertyOp6
 70
     1
102
RTVSPropertyOp7
 70
     1
102
RTVSPropertyOp8
 70
     1
102
RTVSPropertyOp9
 70
     1
102
RTVSPropertyOp10
 70
     1
102
RTVSPropertyOp11
 70
     1
102
RTVSPropertyOp12
 70
     1
102
RTVSPropertyOp13
 70
     1
102
RTVSPropertyOp14
 70
     1
102
RTVSPropertyOp15
 70
     1
102
RTVSPropertyOp16
 70
     1
102
RTVSPropertyOp17
 70
     1
102
RTVSPropertyOp18
 70
     1
102
RTVSPropertyOp19
 70
     1
102
RTVSPropertyOp20
 70
     1
102
RTVSPropertyOp21
 70
     1
102
RTVSPropertyOp22
 70
     1
102
RTVSPropertyOp23
 70
     1
102
RTVSPropertyOp24
 70
     1
102
RTVSPropertyOp25
 70
     1
102
RTVSPropertyOp26
 70
     1
102
RTVSPropertyOp27
 70
     1
102
RTVSPropertyOp28
 70
     1
102
RTVSPropertyOp29
 70
     1
102
RTVSPropertyOp30
 70
     1
102
RTVSPropertyOp31
 70
     1
102
RTVSPropertyOp32
 70
     1
102
RTVSPropertyOp33
 70
     1
102
RTVSPropertyOp34
 70
     1
102
RTVSPropertyOp35
 70
     1
102
RTVSPropertyOp36
 70
     1
102
RTVSPropertyOp37
 70
     1
102
RTVSPropertyOp38
 70
     1
102
RTVSPropertyOp39
 70
     1
102
RTVSPropertyOp40
 70
     1
102
RTVSPropertyOp41
 70
     1
102
RTVSPropertyOp42
 70
     1
102
RTVSPropertyOp43
 70
     1
102
RTVSPropertyOp44
 70
     1
102
RTVSPropertyOp45
 70
     1
102
RTVSPropertyOp46
 70
     1
102
RTVSPropertyOp47
 70
     1
102
RTVSPropertyOp48
 70
     1
102
RTVSPropertyOp49
 70
     1
102
RTVSPropertyOp50
 70
     1
102
RTVSPropertyOp51
 70
     0
102
RTVSPropertyOp52
 70
     0
102
RTVSPropertyOp53
 70
     1
102
RTVSPropertyOp54
 70
     1
102
RTVSPropertyOp55
 70
     1
102
RTVSPropertyOp56
 70
     1
102
RTVSPropertyOp57
 70
     1
102
RTVSPropertyOp58
 70
     1
102
RTVSPropertyOp59
 70
     1
102
RTVSPropertyOp60
 70
     1
102
RTVSPropertyOp61
 70
     1
102
RTVSPropertyOp62
 70
     1
  0
XRECORD
  5
296
102
{ACAD_REACTORS
330
295
102
}
330
295
100
AcDbXrecord
280
     1
102
RTVSPost2010Prop28
280
     0
102
RTVSPost2010PropOp28
 70
     1
102
RTVSPost2010Prop29
280
     1
102
RTVSPost2010PropOp29
 70
     1
102
RTVSPost2010Prop30
280
     1
102
RTVSPost2010PropOp30
 70
     1
102
RTVSPost2010Prop31
280
     0
102
RTVSPost2010PropOp31
 70
     1
102
RTVSPost2010Prop32
280
     0
102
RTVSPost2010PropOp32
 70
     1
102
RTVSPost2010Prop33
280
     0
102
RTVSPost2010PropOp33
 70
     1
102
RTVSPost2010Prop34
280
     0
102
RTVSPost2010PropOp34
 70
     1
102
RTVSPost2010Prop35
280
     0
102
RTVSPost2010PropOp35
 70
     1
102
RTVSPost2010Prop36
280
     0
102
RTVSPost2010PropOp36
 70
     1
102
RTVSPost2010Prop37
 90
       50
102
RTVSPost2010PropOp37
 70
     1
102
RTVSPost2010Prop38
140
0.0
102
RTVSPost2010PropOp38
 70
     1
102
RTVSPost2010Prop39
140
1.0
102
RTVSPost2010PropOp39
 70
     1
102
RTVSPost2010Prop40
 90
        0
102
RTVSPost2010PropOp40
 70
     1
102
RTVSPost2010Prop41ColorIndex
 90
       18
102
RTVSPost2010Prop41ColorRGB
 90
        0
102
RTVSPost2010PropOp41
 70
     1
102
RTVSPost2010Prop42
 90
       50
102
RTVSPost2010PropOp42
 70
     1
102
RTVSPost2010Prop43
 90
        3
102
RTVSPost2010PropOp43
 70
     1
102
RTVSPost2010Prop44ColorIndex
 90
        5
102
RTVSPost2010Prop44ColorRGB
 90
      255
102
RTVSPost2010PropOp44
 70
     1
102
RTVSPost2010Prop45
280
     0
102
RTVSPost2010PropOp45
 70
     1
102
RTVSPost2010Prop46
 90
       50
102
RTVSPost2010PropOp46
 70
     1
102
RTVSPost2010Prop47
 90
       50
102
RTVSPost2010PropOp47
 70
     1
102
RTVSPost2010Prop48
 90
       50
102
RTVSPost2010PropOp48
 70
     1
102
RTVSPost2010Prop49
280
     0
102
RTVSPost2010PropOp49
 70
     1
102
RTVSPost2010Prop50
 90
       50
102
RTVSPost2010PropOp50
 70
     1
102
RTVSPost2010Prop51ColorIndex
 90
      256
102
RTVSPost2010Prop51ColorRGB
 90
-16777216
102
RTVSPost2010PropOp51
 70
     0
102
RTVSPost2010Prop52
140
1.0
102
RTVSPost2010PropOp52
 70
     0
102
RTVSPost2010Prop53
 90
        2
102
RTVSPost2010PropOp53
 70
     1
102
RTVSPost2010Prop54
  1
strokes_ogs.tif
102
RTVSPost2010PropOp54
 70
     1
102
RTVSPost2010Prop55
280
     0
102
RTVSPost2010PropOp55
 70
     1
102
RTVSPost2010Prop56
140
1.0
102
RTVSPost2010PropOp56
 70
     1
102
RTVSPost2010Prop57
140
1.0
102
RTVSPost2010PropOp57
 70
     1
102
RTVSPropertyOp0
 70
     1
102
RTVSPropertyOp1
 70
     1
102
RTVSPropertyOp2
 70
     1
102
RTVSPropertyOp3
 70
     1
102
RTVSPropertyOp4
 70
     1
102
RTVSPropertyOp5
 70
     1
102
RTVSPropertyOp6
 70
     1
102
RTVSPropertyOp7
 70
     1
102
RTVSPropertyOp8
 70
     1
102
RTVSPropertyOp9
 70
     1
102
RTVSPropertyOp10
 70
     1
102
RTVSPropertyOp11
 70
     1
102
RTVSPropertyOp12
 70
     1
102
RTVSPropertyOp13
 70
     1
102
RTVSPropertyOp14
 70
     1
102
RTVSPropertyOp15
 70
     1
102
RTVSPropertyOp16
 70
     1
102
RTVSPropertyOp17
 70
     1
102
RTVSPropertyOp18
 70
     1
102
RTVSPropertyOp19
 70
     1
102
RTVSPropertyOp20
 70
     1
102
RTVSPropertyOp21
 70
     1
102
RTVSPropertyOp22
 70
     1
102
RTVSPropertyOp23
 70
     1
102
RTVSPropertyOp24
 70
     1
102
RTVSPropertyOp25
 70
     1
102
RTVSPropertyOp26
 70
     1
102
RTVSPropertyOp27
 70
     1
102
RTVSPropertyOp28
 70
     1
102
RTVSPropertyOp29
 70
     1
102
RTVSPropertyOp30
 70
     1
102
RTVSPropertyOp31
 70
     1
102
RTVSPropertyOp32
 70
     1
102
RTVSPropertyOp33
 70
     1
102
RTVSPropertyOp34
 70
     1
102
RTVSPropertyOp35
 70
     1
102
RTVSPropertyOp36
 70
     1
102
RTVSPropertyOp37
 70
     1
102
RTVSPropertyOp38
 70
     1
102
RTVSPropertyOp39
 70
     1
102
RTVSPropertyOp40
 70
     1
102
RTVSPropertyOp41
 70
     1
102
RTVSPropertyOp42
 70
     1
102
RTVSPropertyOp43
 70
     1
102
RTVSPropertyOp44
 70
     1
102
RTVSPropertyOp45
 70
     1
102
RTVSPropertyOp46
 70
     1
102
RTVSPropertyOp47
 70
     1
102
RTVSPropertyOp48
 70
     1
102
RTVSPropertyOp49
 70
     1
102
RTVSPropertyOp50
 70
     1
102
RTVSPropertyOp51
 70
     0
102
RTVSPropertyOp52
 70
     0
102
RTVSPropertyOp53
 70
     1
102
RTVSPropertyOp54
 70
     1
102
RTVSPropertyOp55
 70
     1
102
RTVSPropertyOp56
 70
     1
102
RTVSPropertyOp57
 70
     1
102
RTVSPropertyOp58
 70
     1
102
RTVSPropertyOp59
 70
     1
102
RTVSPropertyOp60
 70
     1
102
RTVSPropertyOp61
 70
     1
102
RTVSPropertyOp62
 70
     1
  0
ENDSEC
  0
EOF
