  0
SECTION
  2
HEADER
  9
$ACADVER
  1
AC1021
  9
$ACADMAINTVER
 70
    50
  9
$DWGCODEPAGE
  3
ANSI_1252
  9
$INSBASE
 10
0.0
 20
0.0
 30
0.0
  9
$EXTMIN
 10
3376.451266003404
 20
2297.021759851738
 30
0.0
  9
$EXTMAX
 10
3916.616633342385
 20
2586.12610743649
 30
0.0
  9
$LIMMIN
 10
0.0
 20
0.0
  9
$LIMMAX
 10
12.0
 20
9.0
  9
$ORTHOMODE
 70
     0
  9
$REGENMODE
 70
     1
  9
$FILLMODE
 70
     1
  9
$QTEXTMODE
 70
     0
  9
$MIRRTEXT
 70
     0
  9
$LTSCALE
 40
1.0
  9
$ATTMODE
 70
     1
  9
$TEXTSIZE
 40
0.2
  9
$TRACEWID
 40
0.05
  9
$TEXTSTYLE
  7
Standard
  9
$CLAYER
  8
0
  9
$CELTYPE
  6
ByLayer
  9
$CECOLOR
 62
   256
  9
$CELTSCALE
 40
1.0
  9
$DISPSILH
 70
     0
  9
$DIMSCALE
 40
1.0
  9
$DIMASZ
 40
0.18
  9
$DIMEXO
 40
0.0625
  9
$DIMDLI
 40
0.38
  9
$DIMRND
 40
0.0
  9
$DIMDLE
 40
0.0
  9
$DIMEXE
 40
0.18
  9
$DIMTP
 40
0.0
  9
$DIMTM
 40
0.0
  9
$DIMTXT
 40
0.18
  9
$DIMCEN
 40
0.09
  9
$DIMTSZ
 40
0.0
  9
$DIMTOL
 70
     0
  9
$DIMLIM
 70
     0
  9
$DIMTIH
 70
     1
  9
$DIMTOH
 70
     1
  9
$DIMSE1
 70
     0
  9
$DIMSE2
 70
     0
  9
$DIMTAD
 70
     0
  9
$DIMZIN
 70
     0
  9
$DIMBLK
  1

  9
$DIMASO
 70
     1
  9
$DIMSHO
 70
     1
  9
$DIMPOST
  1

  9
$DIMAPOST
  1

  9
$DIMALT
 70
     0
  9
$DIMALTD
 70
     2
  9
$DIMALTF
 40
25.4
  9
$DIMLFAC
 40
1.0
  9
$DIMTOFL
 70
     0
  9
$DIMTVP
 40
0.0
  9
$DIMTIX
 70
     0
  9
$DIMSOXD
 70
     0
  9
$DIMSAH
 70
     0
  9
$DIMBLK1
  1

  9
$DIMBLK2
  1

  9
$DIMSTYLE
  2
Standard
  9
$DIMCLRD
 70
     0
  9
$DIMCLRE
 70
     0
  9
$DIMCLRT
 70
     0
  9
$DIMTFAC
 40
1.0
  9
$DIMGAP
 40
0.09
  9
$DIMJUST
 70
     0
  9
$DIMSD1
 70
     0
  9
$DIMSD2
 70
     0
  9
$DIMTOLJ
 70
     1
  9
$DIMTZIN
 70
     0
  9
$DIMALTZ
 70
     0
  9
$DIMALTTZ
 70
     0
  9
$DIMUPT
 70
     0
  9
$DIMDEC
 70
     4
  9
$DIMTDEC
 70
     4
  9
$DIMALTU
 70
     2
  9
$DIMALTTD
 70
     2
  9
$DIMTXSTY
  7
Standard
  9
$DIMAUNIT
 70
     1
  9
$DIMADEC
 70
     0
  9
$DIMALTRND
 40
0.0
  9
$DIMAZIN
 70
     0
  9
$DIMDSEP
 70
    46
  9
$DIMATFIT
 70
     3
  9
$DIMFRAC
 70
     0
  9
$DIMLDRBLK
  1

  9
$DIMLUNIT
 70
     2
  9
$DIMLWD
 70
    -2
  9
$DIMLWE
 70
    -2
  9
$DIMTMOVE
 70
     0
  9
$DIMFXL
 40
1.0
  9
$DIMFXLON
 70
     0
  9
$DIMJOGANG
 40
0.7853981633974483
  9
$DIMTFILL
 70
     0
  9
$DIMTFILLCLR
 70
     0
  9
$DIMARCSYM
 70
     0
  9
$DIMLTYPE
  6

  9
$DIMLTEX1
  6

  9
$DIMLTEX2
  6

  9
$LUNITS
 70
     2
  9
$LUPREC
 70
     4
  9
$SKETCHINC
 40
0.1
  9
$FILLETRAD
 40
0.0
  9
$AUNITS
 70
     0
  9
$AUPREC
 70
     0
  9
$MENU
  1
.
  9
$ELEVATION
 40
0.0
  9
$PELEVATION
 40
0.0
  9
$THICKNESS
 40
0.0
  9
$LIMCHECK
 70
     0
  9
$CHAMFERA
 40
0.0
  9
$CHAMFERB
 40
0.0
  9
$CHAMFERC
 40
0.0
  9
$CHAMFERD
 40
0.0
  9
$SKPOLY
 70
     0
  9
$TDCREATE
 40
2459772.756655093
  9
$TDUCREATE
 40
2459772.256655093
  9
$TDUPDATE
 40
2459772.756655093
  9
$TDUUPDATE
 40
2459772.256655093
  9
$TDINDWG
 40
0.0000231481
  9
$TDUSRTIMER
 40
0.0000231481
  9
$USRTIMER
 70
     1
  9
$ANGBASE
 50
0.0
  9
$ANGDIR
 70
     0
  9
$PDMODE
 70
     0
  9
$PDSIZE
 40
0.0
  9
$PLINEWID
 40
0.0
  9
$SPLFRAME
 70
     0
  9
$SPLINETYPE
 70
     6
  9
$SPLINESEGS
 70
     8
  9
$HANDSEED
  5
331
  9
$SURFTAB1
 70
     6
  9
$SURFTAB2
 70
     6
  9
$SURFTYPE
 70
     6
  9
$SURFU
 70
     6
  9
$SURFV
 70
     6
  9
$UCSBASE
  2

  9
$UCSNAME
  2

  9
$UCSORG
 10
0.0
 20
0.0
 30
0.0
  9
$UCSXDIR
 10
1.0
 20
0.0
 30
0.0
  9
$UCSYDIR
 10
0.0
 20
1.0
 30
0.0
  9
$UCSORTHOREF
  2

  9
$UCSORTHOVIEW
 70
     0
  9
$UCSORGTOP
 10
0.0
 20
0.0
 30
0.0
  9
$UCSORGBOTTOM
 10
0.0
 20
0.0
 30
0.0
  9
$UCSORGLEFT
 10
0.0
 20
0.0
 30
0.0
  9
$UCSORGRIGHT
 10
0.0
 20
0.0
 30
0.0
  9
$UCSORGFRONT
 10
0.0
 20
0.0
 30
0.0
  9
$UCSORGBACK
 10
0.0
 20
0.0
 30
0.0
  9
$PUCSBASE
  2

  9
$PUCSNAME
  2

  9
$PUCSORG
 10
0.0
 20
0.0
 30
0.0
  9
$PUCSXDIR
 10
1.0
 20
0.0
 30
0.0
  9
$PUCSYDIR
 10
0.0
 20
1.0
 30
0.0
  9
$PUCSORTHOREF
  2

  9
$PUCSORTHOVIEW
 70
     0
  9
$PUCSORGTOP
 10
0.0
 20
0.0
 30
0.0
  9
$PUCSORGBOTTOM
 10
0.0
 20
0.0
 30
0.0
  9
$PUCSORGLEFT
 10
0.0
 20
0.0
 30
0.0
  9
$PUCSORGRIGHT
 10
0.0
 20
0.0
 30
0.0
  9
$PUCSORGFRONT
 10
0.0
 20
0.0
 30
0.0
  9
$PUCSORGBACK
 10
0.0
 20
0.0
 30
0.0
  9
$USERI1
 70
     0
  9
$USERI2
 70
     0
  9
$USERI3
 70
     0
  9
$USERI4
 70
     0
  9
$USERI5
 70
     0
  9
$USERR1
 40
0.0
  9
$USERR2
 40
0.0
  9
$USERR3
 40
0.0
  9
$USERR4
 40
0.0
  9
$USERR5
 40
0.0
  9
$WORLDVIEW
 70
     1
  9
$SHADEDGE
 70
     3
  9
$SHADEDIF
 70
    70
  9
$TILEMODE
 70
     0
  9
$MAXACTVP
 70
    64
  9
$PINSBASE
 10
0.0
 20
0.0
 30
0.0
  9
$PLIMCHECK
 70
     0
  9
$PEXTMIN
 10
-3.179323264254881
 20
-3.79528158292931
 30
0.0
  9
$PEXTMAX
 10
293.8206767356985
 20
202.4547184170706
 30
0.0
  9
$PLIMMIN
 10
0.0
 20
0.0
  9
$PLIMMAX
 10
12.0
 20
9.0
  9
$UNITMODE
 70
     0
  9
$VISRETAIN
 70
     1
  9
$PLINEGEN
 70
     0
  9
$PSLTSCALE
 70
     1
  9
$TREEDEPTH
 70
  3020
  9
$CMLSTYLE
  2
Standard
  9
$CMLJUST
 70
     0
  9
$CMLSCALE
 40
1.0
  9
$PROXYGRAPHICS
 70
     1
  9
$MEASUREMENT
 70
     1
  9
$CELWEIGHT
370
    -1
  9
$ENDCAPS
280
     0
  9
$JOINSTYLE
280
     0
  9
$LWDISPLAY
290
     0
  9
$INSUNITS
 70
     4
  9
$HYPERLINKBASE
  1

  9
$STYLESHEET
  1

  9
$XEDIT
290
     1
  9
$CEPSNTYPE
380
     0
  9
$PSTYLEMODE
290
     1
  9
$FINGERPRINTGUID
  2
{6E5E641E-2811-164F-A020-5F7651ECE6CE}
  9
$VERSIONGUID
  2
{6B28537C-04EE-584A-94FB-0D16FF5126E8}
  9
$EXTNAMES
290
     1
  9
$PSVPSCALE
 40
0.0
  9
$OLESTARTUP
290
     0
  9
$SORTENTS
280
   127
  9
$INDEXCTL
280
     0
  9
$HIDETEXT
280
     1
  9
$XCLIPFRAME
290
     0
  9
$HALOGAP
280
     0
  9
$OBSCOLOR
 70
   257
  9
$OBSLTYPE
280
     0
  9
$INTERSECTIONDISPLAY
280
     0
  9
$INTERSECTIONCOLOR
 70
   257
  9
$DIMASSOC
280
     2
  9
$PROJECTNAME
  1

  9
$CAMERADISPLAY
290
     0
  9
$LENSLENGTH
 40
50.0
  9
$CAMERAHEIGHT
 40
0.0
  9
$STEPSPERSEC
 40
2.0
  9
$STEPSIZE
 40
6.0
  9
$3DDWFPREC
 40
2.0
  9
$PSOLWIDTH
 40
0.25
  9
$PSOLHEIGHT
 40
4.0
  9
$LOFTANG1
 40
1.570796326794896
  9
$LOFTANG2
 40
1.570796326794896
  9
$LOFTMAG1
 40
0.0
  9
$LOFTMAG2
 40
0.0
  9
$LOFTPARAM
 70
     7
  9
$LOFTNORMALS
280
     1
  9
$LATITUDE
 40
0.0
  9
$LONGITUDE
 40
0.0
  9
$NORTHDIRECTION
 40
0.0
  9
$TIMEZONE
 70
     0
  9
$LIGHTGLYPHDISPLAY
280
     1
  9
$TILEMODELIGHTSYNCH
280
     1
  9
$CMATERIAL
347
11
  9
$SOLIDHIST
280
     0
  9
$SHOWHIST
280
     1
  9
$DWFFRAME
280
     2
  9
$DGNFRAME
280
     0
  9
$REALWORLDSCALE
290
     1
  9
$INTERFERECOLOR
 62
     1
  9
$INTERFEREOBJVS
345
33
  9
$INTERFEREVPVS
346
30
  9
$CSHADOW
280
     0
  9
$SHADOWPLANELOCATION
 40
0.0
  0
ENDSEC
  0
SECTION
  2
CLASSES
  0
CLASS
  1
ACDBDICTIONARYWDFLT
  2
AcDbDictionaryWithDefault
  3
ObjectDBX Classes
 90
        0
 91
        1
280
     0
281
     0
  0
CLASS
  1
MATERIAL
  2
AcDbMaterial
  3
ObjectDBX Classes
 90
     1153
 91
        3
280
     0
281
     0
  0
CLASS
  1
VISUALSTYLE
  2
AcDbVisualStyle
  3
ObjectDBX Classes
 90
     4095
 91
       24
280
     0
281
     0
  0
CLASS
  1
SCALE
  2
AcDbScale
  3
ObjectDBX Classes
 90
     1153
 91
       17
280
     0
281
     0
  0
CLASS
  1
TABLESTYLE
  2
AcDbTableStyle
  3
ObjectDBX Classes
 90
     4095
 91
        1
280
     0
281
     0
  0
CLASS
  1
MLEADERSTYLE
  2
AcDbMLeaderStyle
  3
ACDB_MLEADERSTYLE_CLASS
 90
     4095
 91
        1
280
     0
281
     0
  0
CLASS
  1
ACDBSECTIONVIEWSTYLE
  2
AcDbSectionViewStyle
  3
ObjectDBX Classes
 90
     1025
 91
        1
280
     0
281
     0
  0
CLASS
  1
ACDBDETAILVIEWSTYLE
  2
AcDbDetailViewStyle
  3
ObjectDBX Classes
 90
     1025
 91
        1
280
     0
281
     0
  0
CLASS
  1
RASTERVARIABLES
  2
AcDbRasterVariables
  3
ISM
 90
        0
 91
        1
280
     0
281
     0
  0
CLASS
  1
DICTIONARYVAR
  2
AcDbDictionaryVar
  3
ObjectDBX Classes
 90
        0
 91
        6
280
     0
281
     0
  0
CLASS
  1
CELLSTYLEMAP
  2
AcDbCellStyleMap
  3
ObjectDBX Classes
 90
     1152
 91
        2
280
     0
281
     0
  0
CLASS
  1
SORTENTSTABLE
  2
AcDbSortentsTable
  3
ObjectDBX Classes
 90
        0
 91
        1
280
     0
281
     0
  0
CLASS
  1
SUN
  2
AcDbSun
  3
SCENEOE
 90
     1153
 91
        1
280
     0
281
     0
  0
ENDSEC
  0
SECTION
  2
TABLES
  0
TABLE
  2
VPORT
  5
8
330
0
100
AcDbSymbolTable
 70
     1
  0
VPORT
  5
57
330
8
100
AcDbSymbolTableRecord
100
AcDbViewportTableRecord
  2
*Active
 70
     0
 10
0.0
 20
0.0
 11
1.0
 21
1.0
 12
3646.533949672894
 22
2441.573933644114
 13
0.0
 23
0.0
 14
1.0
 24
1.0
 15
0.0
 25
0.0
 16
0.0
 26
0.0
 36
1.0
 17
0.0
 27
0.0
 37
0.0
 40
289.1043475847519
 41
1.86840969999813
 42
50.0
 43
0.0
 44
0.0
 50
0.0
 51
0.0
 71
     0
 72
  1000
 73
     1
 74
     1
 75
     0
 76
     0
 77
     0
 78
     0
281
     0
 65
     1
110
0.0
120
0.0
130
0.0
111
1.0
121
0.0
131
0.0
112
0.0
122
1.0
132
0.0
 79
     0
146
0.0
 60
     3
 61
     5
292
     1
282
     1
141
0.0
142
0.0
 63
   250
421
  3355443
361
2F3
  0
ENDTAB
  0
TABLE
  2
LTYPE
  5
5
330
0
100
AcDbSymbolTable
 70
     2
  0
LTYPE
  5
5B
330
5
100
AcDbSymbolTableRecord
100
AcDbLinetypeTableRecord
  2
ByBlock
 70
     0
  3

 72
    65
 73
     0
 40
0.0
  0
LTYPE
  5
5C
330
5
100
AcDbSymbolTableRecord
100
AcDbLinetypeTableRecord
  2
ByLayer
 70
     0
  3

 72
    65
 73
     0
 40
0.0
  0
LTYPE
  5
5D
330
5
100
AcDbSymbolTableRecord
100
AcDbLinetypeTableRecord
  2
Continuous
 70
     0
  3
Solid line
 72
    65
 73
     0
 40
0.0
  0
LTYPE
  5
BE
330
5
100
AcDbSymbolTableRecord
100
AcDbLinetypeTableRecord
  2
Dash
 70
     0
  3

 72
    65
 73
     2
 40
3.4
 49
2.2
 74
     0
 49
-1.199999999999999
 74
     0
  0
ENDTAB
  0
TABLE
  2
LAYER
  5
2
330
0
100
AcDbSymbolTable
 70
     3
  0
LAYER
  5
54
330
2
100
AcDbSymbolTableRecord
100
AcDbLayerTableRecord
  2
0
 70
     0
 62
     7
  6
Continuous
370
    -3
390
F
347
21
  0
LAYER
  5
BC
330
2
100
AcDbSymbolTableRecord
100
AcDbLayerTableRecord
  2
_ARDEX - WELDTEC_
 70
     0
 62
     7
  6
Continuous
370
     9
390
F
347
21
  0
LAYER
  5
BF
330
2
100
AcDbSymbolTableRecord
100
AcDbLayerTableRecord
  2
_ARDEX - BUTYNOL_
 70
     0
 62
     7
  6
Dash
370
    50
390
F
347
21
  0
ENDTAB
  0
TABLE
  2
STYLE
  5
3
330
0
100
AcDbSymbolTable
 70
    11
  0
STYLE
  5
55
330
3
100
AcDbSymbolTableRecord
100
AcDbTextStyleTableRecord
  2
Standard
 70
     0
 40
0.0
 41
1.0
 50
0.0
 71
     0
 42
0.2
  3
txt
  4

  0
STYLE
  5
5A
330
3
100
AcDbSymbolTableRecord
100
AcDbTextStyleTableRecord
  2
Annotative
 70
     0
 40
0.0
 41
1.0
 50
0.0
 71
     0
 42
0.2
  3
txt
  4

1001
AcadAnnotative
1000
AnnotativeData
1002
{
1070
     1
1070
     1
1002
}
  0
STYLE
  5
22E
330
3
100
AcDbSymbolTableRecord
100
AcDbTextStyleTableRecord
  2
Swis721 Lt BT
 70
     0
 40
4.0
 41
1.0
 50
0.0
 71
     0
 42
0.2
  3
swissl.ttf
  4

1001
ACAD
1000
Swis721 Lt BT
1071
       34
  0
STYLE
  5
2CA
330
3
100
AcDbSymbolTableRecord
100
AcDbTextStyleTableRecord
  2
Swis721 Lt BT_1
 70
     0
 40
1.5
 41
0.9
 50
0.0
 71
     0
 42
0.2
  3
swissl.ttf
  4

1001
ACAD
1000
Swis721 Lt BT
1071
       34
  0
STYLE
  5
2CE
330
3
100
AcDbSymbolTableRecord
100
AcDbTextStyleTableRecord
  2
Swis721 Lt BT_2
 70
     0
 40
2.1
 41
0.9
 50
0.0
 71
     0
 42
0.2
  3
swissl.ttf
  4

1001
ACAD
1000
Swis721 Lt BT
1071
       34
  0
STYLE
  5
2D1
330
3
100
AcDbSymbolTableRecord
100
AcDbTextStyleTableRecord
  2
Swis721 Lt BT_B
 70
     0
 40
0.7000000000000001
 41
0.9
 50
0.0
 71
     0
 42
0.2
  3

  4

1001
ACAD
1000
Swis721 Lt BT
1071
 33554466
  0
STYLE
  5
2D3
330
3
100
AcDbSymbolTableRecord
100
AcDbTextStyleTableRecord
  2
Swis721 Lt BT_3
 70
     0
 40
0.7000000000000001
 41
0.9
 50
0.0
 71
     0
 42
0.2
  3
swissl.ttf
  4

1001
ACAD
1000
Swis721 Lt BT
1071
       34
  0
STYLE
  5
2E2
330
3
100
AcDbSymbolTableRecord
100
AcDbTextStyleTableRecord
  2
Swis721 Lt BT_4
 70
     0
 40
2.0
 41
1.0
 50
0.0
 71
     0
 42
0.2
  3
swissl.ttf
  4

1001
ACAD
1000
Swis721 Lt BT
1071
       34
  0
STYLE
  5
2E4
330
3
100
AcDbSymbolTableRecord
100
AcDbTextStyleTableRecord
  2
Arial Black_B
 70
     0
 40
5.0
 41
0.9
 50
0.0
 71
     0
 42
0.2
  3
ariblk.ttf
  4

1001
ACAD
1000
Arial Black
1071
 33554466
  0
STYLE
  5
2E6
330
3
100
AcDbSymbolTableRecord
100
AcDbTextStyleTableRecord
  2
Swis721 Lt BT_5
 70
     0
 40
3.0
 41
1.0
 50
0.0
 71
     0
 42
0.2
  3
swissl.ttf
  4

1001
ACAD
1000
Swis721 Lt BT
1071
       34
  0
STYLE
  5
2E8
330
3
100
AcDbSymbolTableRecord
100
AcDbTextStyleTableRecord
  2
Arial
 70
     0
 40
4.0
 41
1.0
 50
0.0
 71
     0
 42
0.2
  3
arial.ttf
  4

1001
ACAD
1000
Arial
1071
       34
  0
ENDTAB
  0
TABLE
  2
VIEW
  5
6
330
0
100
AcDbSymbolTable
 70
     0
  0
ENDTAB
  0
TABLE
  2
UCS
  5
7
330
0
100
AcDbSymbolTable
 70
     0
  0
ENDTAB
  0
TABLE
  2
APPID
  5
9
330
0
100
AcDbSymbolTable
 70
     4
  0
APPID
  5
56
330
9
100
AcDbSymbolTableRecord
100
AcDbRegAppTableRecord
  2
ACAD
 70
     0
  0
APPID
  5
5E
330
9
100
AcDbSymbolTableRecord
100
AcDbRegAppTableRecord
  2
AcadAnnotative
 70
     0
  0
APPID
  5
78
330
9
100
AcDbSymbolTableRecord
100
AcDbRegAppTableRecord
  2
REVIT
 70
     0
  0
APPID
  5
32A
330
9
100
AcDbSymbolTableRecord
100
AcDbRegAppTableRecord
  2
ACAD_MLEADERVER
 70
     0
  0
ENDTAB
  0
TABLE
  2
DIMSTYLE
  5
A
330
0
100
AcDbSymbolTable
 70
     2
100
AcDbDimStyleTable
 71
     0
  0
DIMSTYLE
105
58
330
A
100
AcDbSymbolTableRecord
100
AcDbDimStyleTableRecord
  2
Standard
 70
     0
340
55
  0
DIMSTYLE
105
59
330
A
100
AcDbSymbolTableRecord
100
AcDbDimStyleTableRecord
  2
Annotative
 70
     0
340
55
1001
AcadAnnotative
1000
AnnotativeData
1002
{
1070
     1
1070
     1
1002
}
  0
ENDTAB
  0
TABLE
  2
BLOCK_RECORD
  5
1
330
0
100
AcDbSymbolTable
 70
    11
  0
BLOCK_RECORD
  5
70
102
{ACAD_XDICTIONARY
360
2F0
102
}
330
1
100
AcDbSymbolTableRecord
100
AcDbBlockTableRecord
  2
*Model_Space
340
73
 70
     0
280
     1
281
     0
  0
BLOCK_RECORD
  5
6C
330
1
100
AcDbSymbolTableRecord
100
AcDbBlockTableRecord
  2
*Paper_Space
340
6F
 70
     0
280
     1
281
     0
  0
BLOCK_RECORD
  5
74
330
1
100
AcDbSymbolTableRecord
100
AcDbBlockTableRecord
  2
*Paper_Space0
340
77
 70
     0
280
     1
281
     0
  0
BLOCK_RECORD
  5
BD
330
1
100
AcDbSymbolTableRecord
100
AcDbBlockTableRecord
  2
_ARDEX_ Lines - Barrier-595672-AB-30 WARM ROOF SYSTEM - PLYWOOD
340
0
102
{BLKREFS
331
C3
102
}
 70
     0
280
     1
281
     0
  0
BLOCK_RECORD
  5
C4
330
1
100
AcDbSymbolTableRecord
100
AcDbBlockTableRecord
  2
_ARDEX_ Lining - Various - Polyiso Board 40MM-595631-AB-30 WARM ROOF SYSTEM - PLYWOOD
340
0
102
{BLKREFS
331
D2
102
}
 70
     0
280
     1
281
     0
  0
BLOCK_RECORD
  5
D3
330
1
100
AcDbSymbolTableRecord
100
AcDbBlockTableRecord
  2
_ARDEX_ Lines - Membrane-595663-AB-30 WARM ROOF SYSTEM - PLYWOOD
340
0
102
{BLKREFS
331
D7
102
}
 70
     0
280
     1
281
     0
  0
BLOCK_RECORD
  5
D8
330
1
100
AcDbSymbolTableRecord
100
AcDbBlockTableRecord
  2
_ARDEX_ Lining - Various - Polyiso HD Cover Board-563354-AB-30 WARM ROOF SYSTEM - PLYWOOD
340
0
102
{BLKREFS
331
E7
102
}
 70
     0
280
     1
281
     0
  0
BLOCK_RECORD
  5
E8
330
1
100
AcDbSymbolTableRecord
100
AcDbBlockTableRecord
  2
_ARDEX_ Lining - Various - Adhesive-563866-AB-30 WARM ROOF SYSTEM - PLYWOOD
340
0
102
{BLKREFS
331
104
102
}
 70
     0
280
     1
281
     0
  0
BLOCK_RECORD
  5
105
330
1
100
AcDbSymbolTableRecord
100
AcDbBlockTableRecord
  2
_ARDEX_ Plywood - 18mm-564453-AB-30 WARM ROOF SYSTEM - PLYWOOD
340
0
102
{BLKREFS
331
10F
102
}
 70
     0
280
     1
281
     0
  0
BLOCK_RECORD
  5
110
330
1
100
AcDbSymbolTableRecord
100
AcDbBlockTableRecord
  2
_ARDEX_ Lining - Various - Plate-577194-AB-30 WARM ROOF SYSTEM - PLYWOOD
340
0
102
{BLKREFS
331
117
331
118
331
119
102
}
 70
     0
280
     1
281
     0
  0
BLOCK_RECORD
  5
11A
330
1
100
AcDbSymbolTableRecord
100
AcDbBlockTableRecord
  2
_ARDEX_ Fixing Screw CS - _ARDEX_ Fixing Screw CS twin-617847-AB-30 WARM ROOF SYSTEM - PLYWOOD
340
0
102
{BLKREFS
331
227
331
228
331
229
102
}
 70
     0
280
     1
281
     0
  0
BLOCK_RECORD
  5
253
330
1
100
AcDbSymbolTableRecord
100
AcDbBlockTableRecord
  2
_ARDEX_ Landscape Title block - ARDEX Logo_dwg-603482-WARM ROOF SYSTEM - PLYWOOD
340
0
102
{BLKREFS
331
2DE
102
}
 70
     0
280
     1
281
     0
  0
BLOCK_RECORD
  5
2B6
330
1
100
AcDbSymbolTableRecord
100
AcDbBlockTableRecord
  2
_ARDEX_ Landscape Title block - _ARDEX_ Landscape Title block-333213-WARM ROOF SYSTEM - PLYWOOD
340
0
102
{BLKREFS
331
2E1
102
}
 70
     0
280
     1
281
     0
  0
ENDTAB
  0
ENDSEC
  0
SECTION
  2
BLOCKS
  0
BLOCK
  5
71
330
70
100
AcDbEntity
  8
0
100
AcDbBlockBegin
  2
*Model_Space
 70
     0
 10
0.0
 20
0.0
 30
0.0
  3
*Model_Space
  1

  0
ENDBLK
  5
72
330
70
100
AcDbEntity
  8
0
100
AcDbBlockEnd
  0
BLOCK
  5
6D
330
6C
100
AcDbEntity
 67
     1
  8
0
100
AcDbBlockBegin
  2
*Paper_Space
 70
     0
 10
0.0
 20
0.0
 30
0.0
  3
*Paper_Space
  1

  0
ENDBLK
  5
6E
330
6C
100
AcDbEntity
 67
     1
  8
0
100
AcDbBlockEnd
  0
BLOCK
  5
75
330
74
100
AcDbEntity
 67
     1
  8
0
100
AcDbBlockBegin
  2
*Paper_Space0
 70
     0
 10
0.0
 20
0.0
 30
0.0
  3
*Paper_Space0
  1

  0
ENDBLK
  5
76
330
74
100
AcDbEntity
 67
     1
  8
0
100
AcDbBlockEnd
  0
BLOCK
  5
C1
330
BD
100
AcDbEntity
  8
0
100
AcDbBlockBegin
  2
_ARDEX_ Lines - Barrier-595672-AB-30 WARM ROOF SYSTEM - PLYWOOD
 70
     0
 10
0.0
 20
0.0
 30
0.0
  3
_ARDEX_ Lines - Barrier-595672-AB-30 WARM ROOF SYSTEM - PLYWOOD
  1

  0
LINE
  5
C0
330
BD
100
AcDbEntity
  8
_ARDEX - BUTYNOL_
100
AcDbLine
 10
453.8882668505335
 20
0.0
 30
0.0
 11
-0.0000000000024365
 21
0.0
 31
0.0
1001
REVIT
1002
{
1070
     1
1000
564204
1002
}
1002
{
1070
     5
1000
569184
1002
}
1002
{
1070
     3
1000
342012
1002
}
  0
ENDBLK
  5
C2
330
BD
100
AcDbEntity
  8
0
100
AcDbBlockEnd
  0
BLOCK
  5
D0
330
C4
100
AcDbEntity
  8
0
100
AcDbBlockBegin
  2
_ARDEX_ Lining - Various - Polyiso Board 40MM-595631-AB-30 WARM ROOF SYSTEM - PLYWOOD
 70
     0
 10
0.0
 20
0.0
 30
0.0
  3
_ARDEX_ Lining - Various - Polyiso Board 40MM-595631-AB-30 WARM ROOF SYSTEM - PLYWOOD
  1

  0
HATCH
  5
C9
330
C4
100
AcDbEntity
  8
_ARDEX - WELDTEC_
 62
   254
420
 14737632
100
AcDbHatch
 10
0.0
 20
0.0
 30
0.0
210
0.0
220
0.0
230
1.0
  2
SOLID
 70
     1
 71
     0
 91
        1
 92
        1
 93
        4
 72
     1
 10
453.8882668505381
 20
-0.000000000000846
 11
453.888266850538
 21
39.60000000000183
 72
     1
 10
453.888266850538
 20
39.60000000000183
 11
0.000000000001819
 21
39.59999999999993
 72
     1
 10
0.0000000000018358
 20
39.59999999999993
 11
0.0000000000018273
 21
-0.0000000000008455
 72
     1
 10
0.0000000000018273
 20
-0.000000000000846
 11
453.8882668505381
 21
-0.000000000000846
 97
        0
 75
     0
 76
     1
 98
        1
 10
0.0
 20
0.0
450
        0
451
        0
460
0.0
461
0.0
452
        0
462
0.0
453
        0
470

1001
REVIT
1002
{
1070
     1
1000
564205
1002
}
1002
{
1070
     5
1000
595603
1002
}
  0
HATCH
  5
CE
330
C4
100
AcDbEntity
  8
_ARDEX - WELDTEC_
 62
     8
420
  8421504
100
AcDbHatch
 10
0.0
 20
0.0
 30
0.0
210
0.0
220
0.0
230
1.0
  2
FP_1
 70
     0
 71
     0
 91
        1
 92
        1
 93
        4
 72
     1
 10
453.8882668505381
 20
-0.000000000000846
 11
453.888266850538
 21
39.60000000000183
 72
     1
 10
453.888266850538
 20
39.60000000000183
 11
0.000000000001819
 21
39.59999999999993
 72
     1
 10
0.0000000000018358
 20
39.59999999999993
 11
0.0000000000018273
 21
-0.0000000000008455
 72
     1
 10
0.0000000000018273
 20
-0.000000000000846
 11
453.8882668505381
 21
-0.000000000000846
 97
        0
 75
     0
 76
     2
 52
0.0
 41
1.0
 77
     0
 78
     1
 53
135.0
 43
-3421.884
 44
-2404.958000000001
 45
-2.82842712474619
 46
-2.828427124746189
 79
     0
 98
        1
 10
0.0
 20
0.0
1001
REVIT
1002
{
1070
     1
1000
564205
1002
}
1002
{
1070
     5
1000
595603
1002
}
  0
LINE
  5
CF
330
C4
100
AcDbEntity
  8
_ARDEX - BUTYNOL_
  6
Continuous
370
    25
100
AcDbLine
 10
0.0
 20
0.0
 30
0.0
 11
453.8882668505359
 21
0.0
 31
0.0
1001
REVIT
1002
{
1070
     1
1000
564205
1002
}
1002
{
1070
     5
1000
595603
1002
}
1002
{
1070
     3
1000
335610
1002
}
  0
ENDBLK
  5
D1
330
C4
100
AcDbEntity
  8
0
100
AcDbBlockEnd
  0
BLOCK
  5
D5
330
D3
100
AcDbEntity
  8
0
100
AcDbBlockBegin
  2
_ARDEX_ Lines - Membrane-595663-AB-30 WARM ROOF SYSTEM - PLYWOOD
 70
     0
 10
0.0
 20
0.0
 30
0.0
  3
_ARDEX_ Lines - Membrane-595663-AB-30 WARM ROOF SYSTEM - PLYWOOD
  1

  0
LINE
  5
D4
330
D3
100
AcDbEntity
  8
_ARDEX - BUTYNOL_
370
   100
100
AcDbLine
 10
453.8882668505332
 20
0.0
 30
0.0
 11
-0.0000000000027072
 21
0.0
 31
0.0
1001
REVIT
1002
{
1070
     1
1000
564206
1002
}
1002
{
1070
     5
1000
569180
1002
}
1002
{
1070
     3
1000
352413
1002
}
  0
ENDBLK
  5
D6
330
D3
100
AcDbEntity
  8
0
100
AcDbBlockEnd
  0
BLOCK
  5
E5
330
D8
100
AcDbEntity
  8
0
100
AcDbBlockBegin
  2
_ARDEX_ Lining - Various - Polyiso HD Cover Board-563354-AB-30 WARM ROOF SYSTEM - PLYWOOD
 70
     0
 10
0.0
 20
0.0
 30
0.0
  3
_ARDEX_ Lining - Various - Polyiso HD Cover Board-563354-AB-30 WARM ROOF SYSTEM - PLYWOOD
  1

  0
HATCH
  5
DD
330
D8
100
AcDbEntity
  8
_ARDEX - WELDTEC_
 62
     9
420
 12632256
100
AcDbHatch
 10
0.0
 20
0.0
 30
0.0
210
0.0
220
0.0
230
1.0
  2
SOLID
 70
     1
 71
     0
 91
        1
 92
        1
 93
        4
 72
     1
 10
453.8882668505385
 20
-0.0000000000008122
 11
453.8882668505386
 21
12.70000000000195
 72
     1
 10
453.8882668505386
 20
12.70000000000195
 11
0.0000000000022169
 21
12.70000000000198
 72
     1
 10
0.0000000000022165
 20
12.70000000000198
 11
0.000000000002208
 21
-0.0000000000008455
 72
     1
 10
0.000000000002208
 20
-0.000000000000846
 11
453.8882668505385
 21
-0.0000000000008122
 97
        0
 75
     0
 76
     1
 98
        1
 10
0.0
 20
0.0
450
        0
451
        0
460
0.0
461
0.0
452
        0
462
0.0
453
        0
470

1001
REVIT
1002
{
1070
     1
1000
564207
1002
}
1002
{
1070
     5
1000
563342
1002
}
  0
HATCH
  5
E2
330
D8
100
AcDbEntity
  8
_ARDEX - WELDTEC_
 62
     8
420
  8421504
100
AcDbHatch
 10
0.0
 20
0.0
 30
0.0
210
0.0
220
0.0
230
1.0
  2
FP_2
 70
     0
 71
     0
 91
        1
 92
        1
 93
        4
 72
     1
 10
453.8882668505385
 20
-0.0000000000008122
 11
453.8882668505386
 21
12.70000000000195
 72
     1
 10
453.8882668505386
 20
12.70000000000195
 11
0.0000000000022169
 21
12.70000000000198
 72
     1
 10
0.0000000000022165
 20
12.70000000000198
 11
0.000000000002208
 21
-0.0000000000008455
 72
     1
 10
0.000000000002208
 20
-0.000000000000846
 11
453.8882668505385
 21
-0.0000000000008122
 97
        0
 75
     0
 76
     2
 52
0.0
 41
1.0
 77
     0
 78
     1
 53
135.0
 43
-3421.884
 44
-2444.558
 45
-2.82842712474619
 46
-2.828427124746189
 79
     0
 98
        1
 10
0.0
 20
0.0
1001
REVIT
1002
{
1070
     1
1000
564207
1002
}
1002
{
1070
     5
1000
563342
1002
}
  0
LINE
  5
E3
330
D8
100
AcDbEntity
  8
_ARDEX - BUTYNOL_
  6
Continuous
370
    25
100
AcDbLine
 10
0.0
 20
12.7
 30
0.0
 11
453.8882668505359
 21
12.7
 31
0.0
1001
REVIT
1002
{
1070
     1
1000
564207
1002
}
1002
{
1070
     5
1000
563342
1002
}
1002
{
1070
     3
1000
335610
1002
}
  0
LINE
  5
E4
330
D8
100
AcDbEntity
  8
_ARDEX - BUTYNOL_
  6
Continuous
370
    25
100
AcDbLine
 10
0.0
 20
0.0
 30
0.0
 11
453.8882668505359
 21
0.0
 31
0.0
1001
REVIT
1002
{
1070
     1
1000
564207
1002
}
1002
{
1070
     5
1000
563342
1002
}
1002
{
1070
     3
1000
335610
1002
}
  0
ENDBLK
  5
E6
330
D8
100
AcDbEntity
  8
0
100
AcDbBlockEnd
  0
BLOCK
  5
102
330
E8
100
AcDbEntity
  8
0
100
AcDbBlockBegin
  2
_ARDEX_ Lining - Various - Adhesive-563866-AB-30 WARM ROOF SYSTEM - PLYWOOD
 70
     0
 10
0.0
 20
0.0
 30
0.0
  3
_ARDEX_ Lining - Various - Adhesive-563866-AB-30 WARM ROOF SYSTEM - PLYWOOD
  1

  0
HATCH
  5
F9
330
E8
100
AcDbEntity
  8
_ARDEX - WELDTEC_
 62
   254
420
 14737632
100
AcDbHatch
 10
0.0
 20
0.0
 30
0.0
210
0.0
220
0.0
230
1.0
  2
SOLID
 70
     1
 71
     0
 91
        4
 92
        1
 93
        4
 72
     1
 10
453.8882668505332
 20
0.0000000000013874
 11
422.0358878813917
 21
0.0000000000013874
 72
     1
 10
422.0358878813917
 20
0.0000000000013874
 11
422.0358878813917
 21
-1.800000000001451
 72
     1
 10
422.0358878813917
 20
-1.800000000001451
 11
453.8882668505332
 21
-1.800000000001418
 72
     1
 10
453.8882668505332
 20
-1.800000000001418
 11
453.8882668505332
 21
0.0000000000013873
 97
        0
 92
        1
 93
        4
 72
     1
 10
397.0358878813917
 20
0.0000000000013874
 11
242.0358878813912
 21
0.0000000000013874
 72
     1
 10
242.0358878813912
 20
0.0000000000013874
 11
242.0358878813912
 21
-1.800000000001451
 72
     1
 10
242.0358878813912
 20
-1.800000000001451
 11
397.0358878813917
 21
-1.800000000001451
 72
     1
 10
397.0358878813917
 20
-1.800000000001451
 11
397.0358878813917
 21
0.0000000000013873
 97
        0
 92
        1
 93
        4
 72
     1
 10
217.0358878813912
 20
0.0000000000013874
 11
42.03588788139103
 21
0.0000000000013874
 72
     1
 10
42.03588788139103
 20
0.0000000000013874
 11
42.03588788139103
 21
-1.800000000001418
 72
     1
 10
42.03588788139103
 20
-1.800000000001418
 11
217.0358878813912
 21
-1.800000000001451
 72
     1
 10
217.0358878813912
 20
-1.800000000001451
 11
217.0358878813912
 21
0.0000000000013873
 97
        0
 92
        1
 93
        4
 72
     1
 10
17.03588788139096
 20
0.0000000000013536
 11
-0.0000000000030447
 21
0.0000000000013874
 72
     1
 10
-0.0000000000030456
 20
0.0000000000013874
 11
-0.0000000000030456
 21
-1.800000000001418
 72
     1
 10
-0.0000000000030456
 20
-1.800000000001418
 11
17.03588788139096
 21
-1.800000000001451
 72
     1
 10
17.03588788139096
 20
-1.800000000001451
 11
17.03588788139096
 21
0.0000000000013536
 97
        0
 75
     0
 76
     1
 98
        1
 10
0.0
 20
0.0
450
        0
451
        0
460
0.0
461
0.0
452
        0
462
0.0
453
        0
470

1001
REVIT
1002
{
1070
     1
1000
564208
1002
}
1002
{
1070
     5
1000
537081
1002
}
  0
LINE
  5
FA
330
E8
100
AcDbEntity
  8
_ARDEX - BUTYNOL_
  6
Continuous
370
    25
100
AcDbLine
 10
0.0
 20
-1.800000000000001
 30
0.0
 11
17.035887881394
 21
-1.800000000000001
 31
0.0
1001
REVIT
1002
{
1070
     1
1000
564208
1002
}
1002
{
1070
     5
1000
537081
1002
}
1002
{
1070
     3
1000
335610
1002
}
  0
LINE
  5
FB
330
E8
100
AcDbEntity
  8
_ARDEX - BUTYNOL_
  6
Continuous
370
    25
100
AcDbLine
 10
42.03588788139401
 20
-1.800000000000001
 30
0.0
 11
217.035887881394
 21
-1.800000000000001
 31
0.0
1001
REVIT
1002
{
1070
     1
1000
564208
1002
}
1002
{
1070
     5
1000
537081
1002
}
1002
{
1070
     3
1000
335610
1002
}
  0
LINE
  5
FC
330
E8
100
AcDbEntity
  8
_ARDEX - BUTYNOL_
  6
Continuous
370
    25
100
AcDbLine
 10
242.0358878813941
 20
-1.800000000000001
 30
0.0
 11
397.0358878813944
 21
-1.800000000000001
 31
0.0
1001
REVIT
1002
{
1070
     1
1000
564208
1002
}
1002
{
1070
     5
1000
537081
1002
}
1002
{
1070
     3
1000
335610
1002
}
  0
LINE
  5
FD
330
E8
100
AcDbEntity
  8
_ARDEX - BUTYNOL_
  6
Continuous
370
    25
100
AcDbLine
 10
422.0358878813944
 20
-1.800000000000001
 30
0.0
 11
453.8882668505359
 21
-1.800000000000001
 31
0.0
1001
REVIT
1002
{
1070
     1
1000
564208
1002
}
1002
{
1070
     5
1000
537081
1002
}
1002
{
1070
     3
1000
335610
1002
}
  0
LINE
  5
FE
330
E8
100
AcDbEntity
  8
_ARDEX - BUTYNOL_
  6
Continuous
370
    25
100
AcDbLine
 10
0.0
 20
0.0
 30
0.0
 11
17.035887881394
 21
0.0
 31
0.0
1001
REVIT
1002
{
1070
     1
1000
564208
1002
}
1002
{
1070
     5
1000
537081
1002
}
1002
{
1070
     3
1000
335610
1002
}
  0
LINE
  5
FF
330
E8
100
AcDbEntity
  8
_ARDEX - BUTYNOL_
  6
Continuous
370
    25
100
AcDbLine
 10
42.03588788139401
 20
0.0
 30
0.0
 11
217.035887881394
 21
0.0
 31
0.0
1001
REVIT
1002
{
1070
     1
1000
564208
1002
}
1002
{
1070
     5
1000
537081
1002
}
1002
{
1070
     3
1000
335610
1002
}
  0
LINE
  5
100
330
E8
100
AcDbEntity
  8
_ARDEX - BUTYNOL_
  6
Continuous
370
    25
100
AcDbLine
 10
242.0358878813941
 20
0.0
 30
0.0
 11
397.0358878813944
 21
0.0
 31
0.0
1001
REVIT
1002
{
1070
     1
1000
564208
1002
}
1002
{
1070
     5
1000
537081
1002
}
1002
{
1070
     3
1000
335610
1002
}
  0
LINE
  5
101
330
E8
100
AcDbEntity
  8
_ARDEX - BUTYNOL_
  6
Continuous
370
    25
100
AcDbLine
 10
422.0358878813944
 20
0.0
 30
0.0
 11
453.8882668505359
 21
0.0
 31
0.0
1001
REVIT
1002
{
1070
     1
1000
564208
1002
}
1002
{
1070
     5
1000
537081
1002
}
1002
{
1070
     3
1000
335610
1002
}
  0
ENDBLK
  5
103
330
E8
100
AcDbEntity
  8
0
100
AcDbBlockEnd
  0
BLOCK
  5
10D
330
105
100
AcDbEntity
  8
0
100
AcDbBlockBegin
  2
_ARDEX_ Plywood - 18mm-564453-AB-30 WARM ROOF SYSTEM - PLYWOOD
 70
     0
 10
0.0
 20
0.0
 30
0.0
  3
_ARDEX_ Plywood - 18mm-564453-AB-30 WARM ROOF SYSTEM - PLYWOOD
  1

  0
LINE
  5
106
330
105
100
AcDbEntity
  8
_ARDEX - BUTYNOL_
  6
Continuous
370
    25
100
AcDbLine
 10
0.0
 20
0.0
 30
0.0
 11
453.8882668505359
 21
0.0
 31
0.0
1001
REVIT
1002
{
1070
     1
1000
564246
1002
}
1002
{
1070
     5
1000
502649
1002
}
1002
{
1070
     3
1000
335610
1002
}
  0
LINE
  5
107
330
105
100
AcDbEntity
  8
_ARDEX - BUTYNOL_
  6
Continuous
370
    25
100
AcDbLine
 10
0.0
 20
18.00000000000033
 30
0.0
 11
453.8882668505359
 21
18.00000000000033
 31
0.0
1001
REVIT
1002
{
1070
     1
1000
564246
1002
}
1002
{
1070
     5
1000
502649
1002
}
1002
{
1070
     3
1000
335610
1002
}
  0
LINE
  5
108
330
105
100
AcDbEntity
  8
_ARDEX - BUTYNOL_
  6
Continuous
 62
     8
420
  8421504
370
     9
100
AcDbLine
 10
0.0
 20
12.00000000000022
 30
0.0
 11
453.8882668505359
 21
12.00000000000022
 31
0.0
1001
REVIT
1002
{
1070
     1
1000
564246
1002
}
1002
{
1070
     5
1000
502649
1002
}
1002
{
1070
     3
1000
335604
1002
}
  0
LINE
  5
109
330
105
100
AcDbEntity
  8
_ARDEX - BUTYNOL_
  6
Continuous
 62
     8
420
  8421504
370
     9
100
AcDbLine
 10
0.0
 20
15.00000000000027
 30
0.0
 11
453.8882668505359
 21
15.00000000000027
 31
0.0
1001
REVIT
1002
{
1070
     1
1000
564246
1002
}
1002
{
1070
     5
1000
502649
1002
}
1002
{
1070
     3
1000
335604
1002
}
  0
LINE
  5
10A
330
105
100
AcDbEntity
  8
_ARDEX - BUTYNOL_
  6
Continuous
 62
     8
420
  8421504
370
     9
100
AcDbLine
 10
453.8882668505359
 20
6.000000000000111
 30
0.0
 11
0.0
 21
6.000000000000111
 31
0.0
1001
REVIT
1002
{
1070
     1
1000
564246
1002
}
1002
{
1070
     5
1000
502649
1002
}
1002
{
1070
     3
1000
335604
1002
}
  0
LINE
  5
10B
330
105
100
AcDbEntity
  8
_ARDEX - BUTYNOL_
  6
Continuous
 62
     8
420
  8421504
370
     9
100
AcDbLine
 10
0.0
 20
3.000000000000055
 30
0.0
 11
453.8882668505359
 21
3.000000000000055
 31
0.0
1001
REVIT
1002
{
1070
     1
1000
564246
1002
}
1002
{
1070
     5
1000
502649
1002
}
1002
{
1070
     3
1000
335604
1002
}
  0
LINE
  5
10C
330
105
100
AcDbEntity
  8
_ARDEX - BUTYNOL_
  6
Continuous
 62
     8
420
  8421504
370
     9
100
AcDbLine
 10
0.0
 20
9.000000000000166
 30
0.0
 11
453.8882668505359
 21
9.000000000000166
 31
0.0
1001
REVIT
1002
{
1070
     1
1000
564246
1002
}
1002
{
1070
     5
1000
502649
1002
}
1002
{
1070
     3
1000
335604
1002
}
  0
ENDBLK
  5
10E
330
105
100
AcDbEntity
  8
0
100
AcDbBlockEnd
  0
BLOCK
  5
115
330
110
100
AcDbEntity
  8
0
100
AcDbBlockBegin
  2
_ARDEX_ Lining - Various - Plate-577194-AB-30 WARM ROOF SYSTEM - PLYWOOD
 70
     0
 10
0.0
 20
0.0
 30
0.0
  3
_ARDEX_ Lining - Various - Plate-577194-AB-30 WARM ROOF SYSTEM - PLYWOOD
  1

  0
LINE
  5
111
330
110
100
AcDbEntity
  8
_ARDEX - BUTYNOL_
  6
Continuous
370
    25
100
AcDbLine
 10
25.0
 20
0.0
 30
0.0
 11
25.0
 21
2.000000000000002
 31
0.0
1001
REVIT
1002
{
1070
     1
1000
614064
1002
}
1002
{
1070
     5
1000
577125
1002
}
1002
{
1070
     3
1000
335610
1002
}
  0
LINE
  5
112
330
110
100
AcDbEntity
  8
_ARDEX - BUTYNOL_
  6
Continuous
370
    25
100
AcDbLine
 10
0.0
 20
2.000000000000002
 30
0.0
 11
0.0
 21
0.0
 31
0.0
1001
REVIT
1002
{
1070
     1
1000
614064
1002
}
1002
{
1070
     5
1000
577125
1002
}
1002
{
1070
     3
1000
335610
1002
}
  0
LINE
  5
113
330
110
100
AcDbEntity
  8
_ARDEX - BUTYNOL_
  6
Continuous
370
    25
100
AcDbLine
 10
0.0
 20
2.000000000000002
 30
0.0
 11
25.0
 21
2.000000000000002
 31
0.0
1001
REVIT
1002
{
1070
     1
1000
614064
1002
}
1002
{
1070
     5
1000
577125
1002
}
1002
{
1070
     3
1000
335610
1002
}
  0
LINE
  5
114
330
110
100
AcDbEntity
  8
_ARDEX - BUTYNOL_
  6
Continuous
370
    25
100
AcDbLine
 10
0.0
 20
0.0
 30
0.0
 11
25.0
 21
0.0
 31
0.0
1001
REVIT
1002
{
1070
     1
1000
614064
1002
}
1002
{
1070
     5
1000
577125
1002
}
1002
{
1070
     3
1000
335610
1002
}
  0
ENDBLK
  5
116
330
110
100
AcDbEntity
  8
0
100
AcDbBlockEnd
  0
BLOCK
  5
225
330
11A
100
AcDbEntity
  8
0
100
AcDbBlockBegin
  2
_ARDEX_ Fixing Screw CS - _ARDEX_ Fixing Screw CS twin-617847-AB-30 WARM ROOF SYSTEM - PLYWOOD
 70
     0
 10
0.0
 20
0.0
 30
0.0
  3
_ARDEX_ Fixing Screw CS - _ARDEX_ Fixing Screw CS twin-617847-AB-30 WARM ROOF SYSTEM - PLYWOOD
  1

  0
LINE
  5
11B
330
11A
100
AcDbEntity
  8
_ARDEX - BUTYNOL_
  6
Continuous
370
     9
100
AcDbLine
 10
1.500000000000042
 20
0.8046444324795769
 30
0.0
 11
1.500000000000037
 21
2.117144432479559
 31
0.0
1001
REVIT
1002
{
1070
     1
1000
618320
1002
}
1002
{
1070
     5
1000
598122
1002
}
1002
{
1070
     3
1000
411603
1002
}
  0
LINE
  5
11C
330
11A
100
AcDbEntity
  8
_ARDEX - BUTYNOL_
  6
Continuous
370
     9
100
AcDbLine
 10
-1.499999999999983
 20
0.088163490354222
 30
0.0
 11
-1.499999999999988
 21
1.400663490354195
 31
0.0
1001
REVIT
1002
{
1070
     1
1000
618320
1002
}
1002
{
1070
     5
1000
598122
1002
}
1002
{
1070
     3
1000
411603
1002
}
  0
LINE
  5
11D
330
11A
100
AcDbEntity
  8
_ARDEX - BUTYNOL_
  6
Continuous
370
     9
100
AcDbLine
 10
-1.499999999999988
 20
1.400663490354195
 30
0.0
 11
-1.999999999999985
 21
1.500000000000002
 31
0.0
1001
REVIT
1002
{
1070
     1
1000
618320
1002
}
1002
{
1070
     5
1000
598122
1002
}
1002
{
1070
     3
1000
411603
1002
}
  0
LINE
  5
11E
330
11A
100
AcDbEntity
  8
_ARDEX - BUTYNOL_
  6
Continuous
370
     9
100
AcDbLine
 10
-1.999999999999985
 20
1.500000000000002
 30
0.0
 11
1.999999999999981
 21
2.205307922833771
 31
0.0
1001
REVIT
1002
{
1070
     1
1000
618320
1002
}
1002
{
1070
     5
1000
598122
1002
}
1002
{
1070
     3
1000
411603
1002
}
  0
LINE
  5
11F
330
11A
100
AcDbEntity
  8
_ARDEX - BUTYNOL_
  6
Continuous
370
     9
100
AcDbLine
 10
1.999999999999983
 20
2.205307922833769
 30
0.0
 11
1.499999999999979
 21
2.304644432479578
 31
0.0
1001
REVIT
1002
{
1070
     1
1000
618320
1002
}
1002
{
1070
     5
1000
598122
1002
}
1002
{
1070
     3
1000
411603
1002
}
  0
ARC
  5
120
330
11A
100
AcDbEntity
  8
_ARDEX - WELDTEC_
100
AcDbCircle
 10
-9.475360024185311
 20
74.62640678351897
 30
0.0
 40
11.42760489270757
100
AcDbArc
 50
16.22368051436001
 51
33.98703095047725
1001
REVIT
1002
{
1070
     1
1000
618320
1002
}
1002
{
1070
     5
1000
598122
1002
}
  0
ARC
  5
121
330
11A
100
AcDbEntity
  8
_ARDEX - WELDTEC_
100
AcDbCircle
 10
12.04300340060667
 20
73.74784761874773
 30
0.0
 40
14.0654944744007
100
AcDbArc
 50
148.8935611290093
 51
166.2700026706677
1001
REVIT
1002
{
1070
     1
1000
618320
1002
}
1002
{
1070
     5
1000
598122
1002
}
  0
LINE
  5
122
330
11A
100
AcDbEntity
  8
_ARDEX - BUTYNOL_
  6
Continuous
370
     9
100
AcDbLine
 10
1.475609562713526
 20
76.31914216681527
 30
0.0
 11
1.475609562713521
 21
77.63164216681524
 31
0.0
1001
REVIT
1002
{
1070
     1
1000
618320
1002
}
1002
{
1070
     5
1000
598122
1002
}
1002
{
1070
     3
1000
411603
1002
}
  0
LINE
  5
123
330
11A
100
AcDbEntity
  8
_ARDEX - BUTYNOL_
  6
Continuous
370
     9
100
AcDbLine
 10
-1.524390437286499
 20
75.60266122468989
 30
0.0
 11
-1.524390437286504
 21
76.91516122468986
 31
0.0
1001
REVIT
1002
{
1070
     1
1000
618320
1002
}
1002
{
1070
     5
1000
598122
1002
}
1002
{
1070
     3
1000
411603
1002
}
  0
LINE
  5
124
330
11A
100
AcDbEntity
  8
_ARDEX - BUTYNOL_
  6
Continuous
370
     9
100
AcDbLine
 10
-1.524390437286504
 20
76.91516122468986
 30
0.0
 11
-2.024390437286546
 21
77.01449773433569
 31
0.0
1001
REVIT
1002
{
1070
     1
1000
618320
1002
}
1002
{
1070
     5
1000
598122
1002
}
1002
{
1070
     3
1000
411603
1002
}
  0
LINE
  5
125
330
11A
100
AcDbEntity
  8
_ARDEX - BUTYNOL_
  6
Continuous
370
     9
100
AcDbLine
 10
-2.024390437286526
 20
77.01449773433569
 30
0.0
 11
1.975609562713424
 21
77.71980565716946
 31
0.0
1001
REVIT
1002
{
1070
     1
1000
618320
1002
}
1002
{
1070
     5
1000
598122
1002
}
1002
{
1070
     3
1000
411603
1002
}
  0
LINE
  5
126
330
11A
100
AcDbEntity
  8
_ARDEX - BUTYNOL_
  6
Continuous
370
     9
100
AcDbLine
 10
1.975609562713404
 20
77.71980565716946
 30
0.0
 11
1.475609562713463
 21
77.81914216681524
 31
0.0
1001
REVIT
1002
{
1070
     1
1000
618320
1002
}
1002
{
1070
     5
1000
598122
1002
}
1002
{
1070
     3
1000
411603
1002
}
  0
LINE
  5
127
330
11A
100
AcDbEntity
  8
_ARDEX - BUTYNOL_
  6
Continuous
370
     9
100
AcDbLine
 10
1.499512191254312
 20
2.31493438716629
 30
0.0
 11
1.499512191254307
 21
3.627434387166272
 31
0.0
1001
REVIT
1002
{
1070
     1
1000
618320
1002
}
1002
{
1070
     5
1000
598122
1002
}
1002
{
1070
     3
1000
411603
1002
}
  0
LINE
  5
128
330
11A
100
AcDbEntity
  8
_ARDEX - BUTYNOL_
  6
Continuous
370
     9
100
AcDbLine
 10
-1.500487808745713
 20
1.598453445040935
 30
0.0
 11
-1.500487808745718
 21
2.910953445040909
 31
0.0
1001
REVIT
1002
{
1070
     1
1000
618320
1002
}
1002
{
1070
     5
1000
598122
1002
}
1002
{
1070
     3
1000
411603
1002
}
  0
LINE
  5
129
330
11A
100
AcDbEntity
  8
_ARDEX - BUTYNOL_
  6
Continuous
370
     9
100
AcDbLine
 10
-1.500487808745718
 20
2.910953445040909
 30
0.0
 11
-2.000487808745716
 21
3.010289954686715
 31
0.0
1001
REVIT
1002
{
1070
     1
1000
618320
1002
}
1002
{
1070
     5
1000
598122
1002
}
1002
{
1070
     3
1000
411603
1002
}
  0
LINE
  5
12A
330
11A
100
AcDbEntity
  8
_ARDEX - BUTYNOL_
  6
Continuous
370
     9
100
AcDbLine
 10
-2.000487808745716
 20
3.010289954686715
 30
0.0
 11
1.999512191254251
 21
3.715597877520484
 31
0.0
1001
REVIT
1002
{
1070
     1
1000
618320
1002
}
1002
{
1070
     5
1000
598122
1002
}
1002
{
1070
     3
1000
411603
1002
}
  0
LINE
  5
12B
330
11A
100
AcDbEntity
  8
_ARDEX - BUTYNOL_
  6
Continuous
370
     9
100
AcDbLine
 10
1.999512191254252
 20
3.715597877520483
 30
0.0
 11
1.499512191254249
 21
3.814934387166291
 31
0.0
1001
REVIT
1002
{
1070
     1
1000
618320
1002
}
1002
{
1070
     5
1000
598122
1002
}
1002
{
1070
     3
1000
411603
1002
}
  0
LINE
  5
12C
330
11A
100
AcDbEntity
  8
_ARDEX - BUTYNOL_
  6
Continuous
370
     9
100
AcDbLine
 10
1.499024382508581
 20
3.825224341853004
 30
0.0
 11
1.499024382508576
 21
5.137724341852985
 31
0.0
1001
REVIT
1002
{
1070
     1
1000
618320
1002
}
1002
{
1070
     5
1000
598122
1002
}
1002
{
1070
     3
1000
411603
1002
}
  0
LINE
  5
12D
330
11A
100
AcDbEntity
  8
_ARDEX - BUTYNOL_
  6
Continuous
370
     9
100
AcDbLine
 10
-1.500975617491444
 20
3.108743399727649
 30
0.0
 11
-1.500975617491449
 21
4.421243399727622
 31
0.0
1001
REVIT
1002
{
1070
     1
1000
618320
1002
}
1002
{
1070
     5
1000
598122
1002
}
1002
{
1070
     3
1000
411603
1002
}
  0
LINE
  5
12E
330
11A
100
AcDbEntity
  8
_ARDEX - BUTYNOL_
  6
Continuous
370
     9
100
AcDbLine
 10
-1.500975617491449
 20
4.421243399727622
 30
0.0
 11
-2.000975617491446
 21
4.520579909373428
 31
0.0
1001
REVIT
1002
{
1070
     1
1000
618320
1002
}
1002
{
1070
     5
1000
598122
1002
}
1002
{
1070
     3
1000
411603
1002
}
  0
LINE
  5
12F
330
11A
100
AcDbEntity
  8
_ARDEX - BUTYNOL_
  6
Continuous
370
     9
100
AcDbLine
 10
-2.000975617491446
 20
4.520579909373428
 30
0.0
 11
1.99902438250852
 21
5.225887832207197
 31
0.0
1001
REVIT
1002
{
1070
     1
1000
618320
1002
}
1002
{
1070
     5
1000
598122
1002
}
1002
{
1070
     3
1000
411603
1002
}
  0
LINE
  5
130
330
11A
100
AcDbEntity
  8
_ARDEX - BUTYNOL_
  6
Continuous
370
     9
100
AcDbLine
 10
1.999024382508521
 20
5.225887832207197
 30
0.0
 11
1.499024382508518
 21
5.325224341853004
 31
0.0
1001
REVIT
1002
{
1070
     1
1000
618320
1002
}
1002
{
1070
     5
1000
598122
1002
}
1002
{
1070
     3
1000
411603
1002
}
  0
LINE
  5
131
330
11A
100
AcDbEntity
  8
_ARDEX - BUTYNOL_
  6
Continuous
370
     9
100
AcDbLine
 10
1.498536573762851
 20
5.335514296539716
 30
0.0
 11
1.498536573762846
 21
6.648014296539698
 31
0.0
1001
REVIT
1002
{
1070
     1
1000
618320
1002
}
1002
{
1070
     5
1000
598122
1002
}
1002
{
1070
     3
1000
411603
1002
}
  0
LINE
  5
132
330
11A
100
AcDbEntity
  8
_ARDEX - BUTYNOL_
  6
Continuous
370
     9
100
AcDbLine
 10
-1.501463426237174
 20
4.619033354414361
 30
0.0
 11
-1.501463426237179
 21
5.931533354414335
 31
0.0
1001
REVIT
1002
{
1070
     1
1000
618320
1002
}
1002
{
1070
     5
1000
598122
1002
}
1002
{
1070
     3
1000
411603
1002
}
  0
LINE
  5
133
330
11A
100
AcDbEntity
  8
_ARDEX - BUTYNOL_
  6
Continuous
370
     9
100
AcDbLine
 10
-1.501463426237179
 20
5.931533354414335
 30
0.0
 11
-2.001463426237175
 21
6.03086986406014
 31
0.0
1001
REVIT
1002
{
1070
     1
1000
618320
1002
}
1002
{
1070
     5
1000
598122
1002
}
1002
{
1070
     3
1000
411603
1002
}
  0
LINE
  5
134
330
11A
100
AcDbEntity
  8
_ARDEX - BUTYNOL_
  6
Continuous
370
     9
100
AcDbLine
 10
-2.001463426237177
 20
6.03086986406014
 30
0.0
 11
1.998536573762797
 21
6.736177786893912
 31
0.0
1001
REVIT
1002
{
1070
     1
1000
618320
1002
}
1002
{
1070
     5
1000
598122
1002
}
1002
{
1070
     3
1000
411603
1002
}
  0
LINE
  5
135
330
11A
100
AcDbEntity
  8
_ARDEX - BUTYNOL_
  6
Continuous
370
     9
100
AcDbLine
 10
1.998536573762796
 20
6.73617778689391
 30
0.0
 11
1.498536573762788
 21
6.835514296539718
 31
0.0
1001
REVIT
1002
{
1070
     1
1000
618320
1002
}
1002
{
1070
     5
1000
598122
1002
}
1002
{
1070
     3
1000
411603
1002
}
  0
LINE
  5
136
330
11A
100
AcDbEntity
  8
_ARDEX - BUTYNOL_
  6
Continuous
370
     9
100
AcDbLine
 10
1.498048765017121
 20
6.845804251226432
 30
0.0
 11
1.498048765017116
 21
8.158304251226413
 31
0.0
1001
REVIT
1002
{
1070
     1
1000
618320
1002
}
1002
{
1070
     5
1000
598122
1002
}
1002
{
1070
     3
1000
411603
1002
}
  0
LINE
  5
137
330
11A
100
AcDbEntity
  8
_ARDEX - BUTYNOL_
  6
Continuous
370
     9
100
AcDbLine
 10
-1.501951234982904
 20
6.129323309101078
 30
0.0
 11
-1.501951234982909
 21
7.441823309101049
 31
0.0
1001
REVIT
1002
{
1070
     1
1000
618320
1002
}
1002
{
1070
     5
1000
598122
1002
}
1002
{
1070
     3
1000
411603
1002
}
  0
LINE
  5
138
330
11A
100
AcDbEntity
  8
_ARDEX - BUTYNOL_
  6
Continuous
370
     9
100
AcDbLine
 10
-1.501951234982909
 20
7.441823309101049
 30
0.0
 11
-2.001951234982905
 21
7.541159818746855
 31
0.0
1001
REVIT
1002
{
1070
     1
1000
618320
1002
}
1002
{
1070
     5
1000
598122
1002
}
1002
{
1070
     3
1000
411603
1002
}
  0
LINE
  5
139
330
11A
100
AcDbEntity
  8
_ARDEX - BUTYNOL_
  6
Continuous
370
     9
100
AcDbLine
 10
-2.001951234982907
 20
7.541159818746855
 30
0.0
 11
1.99804876501706
 21
8.246467741580623
 31
0.0
1001
REVIT
1002
{
1070
     1
1000
618320
1002
}
1002
{
1070
     5
1000
598122
1002
}
1002
{
1070
     3
1000
411603
1002
}
  0
LINE
  5
13A
330
11A
100
AcDbEntity
  8
_ARDEX - BUTYNOL_
  6
Continuous
370
     9
100
AcDbLine
 10
1.998048765017063
 20
8.246467741580623
 30
0.0
 11
1.498048765017058
 21
8.34580425122643
 31
0.0
1001
REVIT
1002
{
1070
     1
1000
618320
1002
}
1002
{
1070
     5
1000
598122
1002
}
1002
{
1070
     3
1000
411603
1002
}
  0
LINE
  5
13B
330
11A
100
AcDbEntity
  8
_ARDEX - BUTYNOL_
  6
Continuous
370
     9
100
AcDbLine
 10
1.497560956271391
 20
8.356094205913141
 30
0.0
 11
1.497560956271386
 21
9.668594205913123
 31
0.0
1001
REVIT
1002
{
1070
     1
1000
618320
1002
}
1002
{
1070
     5
1000
598122
1002
}
1002
{
1070
     3
1000
411603
1002
}
  0
LINE
  5
13C
330
11A
100
AcDbEntity
  8
_ARDEX - BUTYNOL_
  6
Continuous
370
     9
100
AcDbLine
 10
-1.502439043728634
 20
7.639613263787786
 30
0.0
 11
-1.502439043728639
 21
8.952113263787762
 31
0.0
1001
REVIT
1002
{
1070
     1
1000
618320
1002
}
1002
{
1070
     5
1000
598122
1002
}
1002
{
1070
     3
1000
411603
1002
}
  0
LINE
  5
13D
330
11A
100
AcDbEntity
  8
_ARDEX - BUTYNOL_
  6
Continuous
370
     9
100
AcDbLine
 10
-1.502439043728639
 20
8.952113263787762
 30
0.0
 11
-2.002439043728635
 21
9.051449773433567
 31
0.0
1001
REVIT
1002
{
1070
     1
1000
618320
1002
}
1002
{
1070
     5
1000
598122
1002
}
1002
{
1070
     3
1000
411603
1002
}
  0
LINE
  5
13E
330
11A
100
AcDbEntity
  8
_ARDEX - BUTYNOL_
  6
Continuous
370
     9
100
AcDbLine
 10
-2.002439043728637
 20
9.051449773433567
 30
0.0
 11
1.997560956271332
 21
9.756757696267337
 31
0.0
1001
REVIT
1002
{
1070
     1
1000
618320
1002
}
1002
{
1070
     5
1000
598122
1002
}
1002
{
1070
     3
1000
411603
1002
}
  0
LINE
  5
13F
330
11A
100
AcDbEntity
  8
_ARDEX - BUTYNOL_
  6
Continuous
370
     9
100
AcDbLine
 10
1.997560956271332
 20
9.756757696267337
 30
0.0
 11
1.497560956271328
 21
9.856094205913144
 31
0.0
1001
REVIT
1002
{
1070
     1
1000
618320
1002
}
1002
{
1070
     5
1000
598122
1002
}
1002
{
1070
     3
1000
411603
1002
}
  0
LINE
  5
140
330
11A
100
AcDbEntity
  8
_ARDEX - BUTYNOL_
  6
Continuous
370
     9
100
AcDbLine
 10
1.49707314752566
 20
9.866384160599857
 30
0.0
 11
1.497073147525655
 21
11.17888416059983
 31
0.0
1001
REVIT
1002
{
1070
     1
1000
618320
1002
}
1002
{
1070
     5
1000
598122
1002
}
1002
{
1070
     3
1000
411603
1002
}
  0
LINE
  5
141
330
11A
100
AcDbEntity
  8
_ARDEX - BUTYNOL_
  6
Continuous
370
     9
100
AcDbLine
 10
-1.502926852474365
 20
9.149903218474502
 30
0.0
 11
-1.50292685247437
 21
10.46240321847447
 31
0.0
1001
REVIT
1002
{
1070
     1
1000
618320
1002
}
1002
{
1070
     5
1000
598122
1002
}
1002
{
1070
     3
1000
411603
1002
}
  0
LINE
  5
142
330
11A
100
AcDbEntity
  8
_ARDEX - BUTYNOL_
  6
Continuous
370
     9
100
AcDbLine
 10
-1.50292685247437
 20
10.46240321847447
 30
0.0
 11
-2.002926852474366
 21
10.56173972812028
 31
0.0
1001
REVIT
1002
{
1070
     1
1000
618320
1002
}
1002
{
1070
     5
1000
598122
1002
}
1002
{
1070
     3
1000
411603
1002
}
  0
LINE
  5
143
330
11A
100
AcDbEntity
  8
_ARDEX - BUTYNOL_
  6
Continuous
370
     9
100
AcDbLine
 10
-2.002926852474368
 20
10.56173972812028
 30
0.0
 11
1.997073147525601
 21
11.26704765095405
 31
0.0
1001
REVIT
1002
{
1070
     1
1000
618320
1002
}
1002
{
1070
     5
1000
598122
1002
}
1002
{
1070
     3
1000
411603
1002
}
  0
LINE
  5
144
330
11A
100
AcDbEntity
  8
_ARDEX - BUTYNOL_
  6
Continuous
370
     9
100
AcDbLine
 10
1.997073147525601
 20
11.26704765095405
 30
0.0
 11
1.497073147525597
 21
11.36638416059986
 31
0.0
1001
REVIT
1002
{
1070
     1
1000
618320
1002
}
1002
{
1070
     5
1000
598122
1002
}
1002
{
1070
     3
1000
411603
1002
}
  0
LINE
  5
145
330
11A
100
AcDbEntity
  8
_ARDEX - BUTYNOL_
  6
Continuous
370
     9
100
AcDbLine
 10
1.49658533877993
 20
11.37667411528658
 30
0.0
 11
1.496585338779925
 21
12.68917411528655
 31
0.0
1001
REVIT
1002
{
1070
     1
1000
618320
1002
}
1002
{
1070
     5
1000
598122
1002
}
1002
{
1070
     3
1000
411603
1002
}
  0
LINE
  5
146
330
11A
100
AcDbEntity
  8
_ARDEX - BUTYNOL_
  6
Continuous
370
     9
100
AcDbLine
 10
-1.503414661220095
 20
10.66019317316122
 30
0.0
 11
-1.5034146612201
 21
11.97269317316119
 31
0.0
1001
REVIT
1002
{
1070
     1
1000
618320
1002
}
1002
{
1070
     5
1000
598122
1002
}
1002
{
1070
     3
1000
411603
1002
}
  0
LINE
  5
147
330
11A
100
AcDbEntity
  8
_ARDEX - BUTYNOL_
  6
Continuous
370
     9
100
AcDbLine
 10
-1.5034146612201
 20
11.97269317316119
 30
0.0
 11
-2.003414661220096
 21
12.072029682807
 31
0.0
1001
REVIT
1002
{
1070
     1
1000
618320
1002
}
1002
{
1070
     5
1000
598122
1002
}
1002
{
1070
     3
1000
411603
1002
}
  0
LINE
  5
148
330
11A
100
AcDbEntity
  8
_ARDEX - BUTYNOL_
  6
Continuous
370
     9
100
AcDbLine
 10
-2.003414661220098
 20
12.072029682807
 30
0.0
 11
1.996585338779871
 21
12.77733760564077
 31
0.0
1001
REVIT
1002
{
1070
     1
1000
618320
1002
}
1002
{
1070
     5
1000
598122
1002
}
1002
{
1070
     3
1000
411603
1002
}
  0
LINE
  5
149
330
11A
100
AcDbEntity
  8
_ARDEX - BUTYNOL_
  6
Continuous
370
     9
100
AcDbLine
 10
1.996585338779871
 20
12.77733760564077
 30
0.0
 11
1.496585338779867
 21
12.87667411528658
 31
0.0
1001
REVIT
1002
{
1070
     1
1000
618320
1002
}
1002
{
1070
     5
1000
598122
1002
}
1002
{
1070
     3
1000
411603
1002
}
  0
LINE
  5
14A
330
11A
100
AcDbEntity
  8
_ARDEX - BUTYNOL_
  6
Continuous
370
     9
100
AcDbLine
 10
1.496097530034199
 20
12.88696406997329
 30
0.0
 11
1.496097530034194
 21
14.19946406997327
 31
0.0
1001
REVIT
1002
{
1070
     1
1000
618320
1002
}
1002
{
1070
     5
1000
598122
1002
}
1002
{
1070
     3
1000
411603
1002
}
  0
LINE
  5
14B
330
11A
100
AcDbEntity
  8
_ARDEX - BUTYNOL_
  6
Continuous
370
     9
100
AcDbLine
 10
-1.503902469965826
 20
12.17048312784793
 30
0.0
 11
-1.50390246996583
 21
13.4829831278479
 31
0.0
1001
REVIT
1002
{
1070
     1
1000
618320
1002
}
1002
{
1070
     5
1000
598122
1002
}
1002
{
1070
     3
1000
411603
1002
}
  0
LINE
  5
14C
330
11A
100
AcDbEntity
  8
_ARDEX - BUTYNOL_
  6
Continuous
370
     9
100
AcDbLine
 10
-1.50390246996583
 20
13.4829831278479
 30
0.0
 11
-2.003902469965826
 21
13.58231963749371
 31
0.0
1001
REVIT
1002
{
1070
     1
1000
618320
1002
}
1002
{
1070
     5
1000
598122
1002
}
1002
{
1070
     3
1000
411603
1002
}
  0
LINE
  5
14D
330
11A
100
AcDbEntity
  8
_ARDEX - BUTYNOL_
  6
Continuous
370
     9
100
AcDbLine
 10
-2.003902469965829
 20
13.58231963749371
 30
0.0
 11
1.996097530034141
 21
14.28762756032748
 31
0.0
1001
REVIT
1002
{
1070
     1
1000
618320
1002
}
1002
{
1070
     5
1000
598122
1002
}
1002
{
1070
     3
1000
411603
1002
}
  0
LINE
  5
14E
330
11A
100
AcDbEntity
  8
_ARDEX - BUTYNOL_
  6
Continuous
370
     9
100
AcDbLine
 10
1.99609753003414
 20
14.28762756032748
 30
0.0
 11
1.496097530034137
 21
14.38696406997329
 31
0.0
1001
REVIT
1002
{
1070
     1
1000
618320
1002
}
1002
{
1070
     5
1000
598122
1002
}
1002
{
1070
     3
1000
411603
1002
}
  0
LINE
  5
14F
330
11A
100
AcDbEntity
  8
_ARDEX - BUTYNOL_
  6
Continuous
370
     9
100
AcDbLine
 10
1.495609721288469
 20
14.39725402466
 30
0.0
 11
1.495609721288464
 21
15.70975402465998
 31
0.0
1001
REVIT
1002
{
1070
     1
1000
618320
1002
}
1002
{
1070
     5
1000
598122
1002
}
1002
{
1070
     3
1000
411603
1002
}
  0
LINE
  5
150
330
11A
100
AcDbEntity
  8
_ARDEX - BUTYNOL_
  6
Continuous
370
     9
100
AcDbLine
 10
-1.504390278711556
 20
13.68077308253465
 30
0.0
 11
-1.504390278711561
 21
14.99327308253462
 31
0.0
1001
REVIT
1002
{
1070
     1
1000
618320
1002
}
1002
{
1070
     5
1000
598122
1002
}
1002
{
1070
     3
1000
411603
1002
}
  0
LINE
  5
151
330
11A
100
AcDbEntity
  8
_ARDEX - BUTYNOL_
  6
Continuous
370
     9
100
AcDbLine
 10
-1.504390278711561
 20
14.99327308253462
 30
0.0
 11
-2.004390278711556
 21
15.09260959218042
 31
0.0
1001
REVIT
1002
{
1070
     1
1000
618320
1002
}
1002
{
1070
     5
1000
598122
1002
}
1002
{
1070
     3
1000
411603
1002
}
  0
LINE
  5
152
330
11A
100
AcDbEntity
  8
_ARDEX - BUTYNOL_
  6
Continuous
370
     9
100
AcDbLine
 10
-2.004390278711559
 20
15.09260959218042
 30
0.0
 11
1.995609721288411
 21
15.79791751501419
 31
0.0
1001
REVIT
1002
{
1070
     1
1000
618320
1002
}
1002
{
1070
     5
1000
598122
1002
}
1002
{
1070
     3
1000
411603
1002
}
  0
LINE
  5
153
330
11A
100
AcDbEntity
  8
_ARDEX - BUTYNOL_
  6
Continuous
370
     9
100
AcDbLine
 10
1.995609721288411
 20
15.79791751501419
 30
0.0
 11
1.495609721288406
 21
15.89725402466
 31
0.0
1001
REVIT
1002
{
1070
     1
1000
618320
1002
}
1002
{
1070
     5
1000
598122
1002
}
1002
{
1070
     3
1000
411603
1002
}
  0
LINE
  5
154
330
11A
100
AcDbEntity
  8
_ARDEX - BUTYNOL_
  6
Continuous
370
     9
100
AcDbLine
 10
1.495121912542739
 20
15.9075439793467
 30
0.0
 11
1.495121912542734
 21
17.22004397934669
 31
0.0
1001
REVIT
1002
{
1070
     1
1000
618320
1002
}
1002
{
1070
     5
1000
598122
1002
}
1002
{
1070
     3
1000
411603
1002
}
  0
LINE
  5
155
330
11A
100
AcDbEntity
  8
_ARDEX - BUTYNOL_
  6
Continuous
370
     9
100
AcDbLine
 10
-1.504878087457286
 20
15.19106303722135
 30
0.0
 11
-1.504878087457291
 21
16.50356303722133
 31
0.0
1001
REVIT
1002
{
1070
     1
1000
618320
1002
}
1002
{
1070
     5
1000
598122
1002
}
1002
{
1070
     3
1000
411603
1002
}
  0
LINE
  5
156
330
11A
100
AcDbEntity
  8
_ARDEX - BUTYNOL_
  6
Continuous
370
     9
100
AcDbLine
 10
-1.504878087457291
 20
16.50356303722133
 30
0.0
 11
-2.004878087457287
 21
16.60289954686714
 31
0.0
1001
REVIT
1002
{
1070
     1
1000
618320
1002
}
1002
{
1070
     5
1000
598122
1002
}
1002
{
1070
     3
1000
411603
1002
}
  0
LINE
  5
157
330
11A
100
AcDbEntity
  8
_ARDEX - BUTYNOL_
  6
Continuous
370
     9
100
AcDbLine
 10
-2.004878087457289
 20
16.60289954686714
 30
0.0
 11
1.99512191254268
 21
17.3082074697009
 31
0.0
1001
REVIT
1002
{
1070
     1
1000
618320
1002
}
1002
{
1070
     5
1000
598122
1002
}
1002
{
1070
     3
1000
411603
1002
}
  0
LINE
  5
158
330
11A
100
AcDbEntity
  8
_ARDEX - BUTYNOL_
  6
Continuous
370
     9
100
AcDbLine
 10
1.99512191254268
 20
17.3082074697009
 30
0.0
 11
1.495121912542676
 21
17.40754397934671
 31
0.0
1001
REVIT
1002
{
1070
     1
1000
618320
1002
}
1002
{
1070
     5
1000
598122
1002
}
1002
{
1070
     3
1000
411603
1002
}
  0
LINE
  5
159
330
11A
100
AcDbEntity
  8
_ARDEX - BUTYNOL_
  6
Continuous
370
     9
100
AcDbLine
 10
1.494634103797009
 20
17.41783393403343
 30
0.0
 11
1.494634103797004
 21
18.73033393403341
 31
0.0
1001
REVIT
1002
{
1070
     1
1000
618320
1002
}
1002
{
1070
     5
1000
598122
1002
}
1002
{
1070
     3
1000
411603
1002
}
  0
LINE
  5
15A
330
11A
100
AcDbEntity
  8
_ARDEX - BUTYNOL_
  6
Continuous
370
     9
100
AcDbLine
 10
-1.505365896203016
 20
16.70135299190807
 30
0.0
 11
-1.505365896203021
 21
18.01385299190804
 31
0.0
1001
REVIT
1002
{
1070
     1
1000
618320
1002
}
1002
{
1070
     5
1000
598122
1002
}
1002
{
1070
     3
1000
411603
1002
}
  0
LINE
  5
15B
330
11A
100
AcDbEntity
  8
_ARDEX - BUTYNOL_
  6
Continuous
370
     9
100
AcDbLine
 10
-1.505365896203021
 20
18.01385299190804
 30
0.0
 11
-2.005365896203017
 21
18.11318950155385
 31
0.0
1001
REVIT
1002
{
1070
     1
1000
618320
1002
}
1002
{
1070
     5
1000
598122
1002
}
1002
{
1070
     3
1000
411603
1002
}
  0
LINE
  5
15C
330
11A
100
AcDbEntity
  8
_ARDEX - BUTYNOL_
  6
Continuous
370
     9
100
AcDbLine
 10
-2.00536589620302
 20
18.11318950155385
 30
0.0
 11
1.99463410379695
 21
18.81849742438762
 31
0.0
1001
REVIT
1002
{
1070
     1
1000
618320
1002
}
1002
{
1070
     5
1000
598122
1002
}
1002
{
1070
     3
1000
411603
1002
}
  0
LINE
  5
15D
330
11A
100
AcDbEntity
  8
_ARDEX - BUTYNOL_
  6
Continuous
370
     9
100
AcDbLine
 10
1.99463410379695
 20
18.81849742438762
 30
0.0
 11
1.494634103796946
 21
18.91783393403343
 31
0.0
1001
REVIT
1002
{
1070
     1
1000
618320
1002
}
1002
{
1070
     5
1000
598122
1002
}
1002
{
1070
     3
1000
411603
1002
}
  0
LINE
  5
15E
330
11A
100
AcDbEntity
  8
_ARDEX - BUTYNOL_
  6
Continuous
370
     9
100
AcDbLine
 10
1.494146295051278
 20
18.92812388872014
 30
0.0
 11
1.494146295051273
 21
20.24062388872014
 31
0.0
1001
REVIT
1002
{
1070
     1
1000
618320
1002
}
1002
{
1070
     5
1000
598122
1002
}
1002
{
1070
     3
1000
411603
1002
}
  0
LINE
  5
15F
330
11A
100
AcDbEntity
  8
_ARDEX - BUTYNOL_
  6
Continuous
370
     9
100
AcDbLine
 10
-1.505853704948747
 20
18.21164294659479
 30
0.0
 11
-1.505853704948752
 21
19.52414294659477
 31
0.0
1001
REVIT
1002
{
1070
     1
1000
618320
1002
}
1002
{
1070
     5
1000
598122
1002
}
1002
{
1070
     3
1000
411603
1002
}
  0
LINE
  5
160
330
11A
100
AcDbEntity
  8
_ARDEX - BUTYNOL_
  6
Continuous
370
     9
100
AcDbLine
 10
-1.505853704948752
 20
19.52414294659477
 30
0.0
 11
-2.005853704948747
 21
19.62347945624058
 31
0.0
1001
REVIT
1002
{
1070
     1
1000
618320
1002
}
1002
{
1070
     5
1000
598122
1002
}
1002
{
1070
     3
1000
411603
1002
}
  0
LINE
  5
161
330
11A
100
AcDbEntity
  8
_ARDEX - BUTYNOL_
  6
Continuous
370
     9
100
AcDbLine
 10
-2.00585370494875
 20
19.62347945624058
 30
0.0
 11
1.99414629505122
 21
20.32878737907435
 31
0.0
1001
REVIT
1002
{
1070
     1
1000
618320
1002
}
1002
{
1070
     5
1000
598122
1002
}
1002
{
1070
     3
1000
411603
1002
}
  0
LINE
  5
162
330
11A
100
AcDbEntity
  8
_ARDEX - BUTYNOL_
  6
Continuous
370
     9
100
AcDbLine
 10
1.994146295051219
 20
20.32878737907435
 30
0.0
 11
1.494146295051215
 21
20.42812388872015
 31
0.0
1001
REVIT
1002
{
1070
     1
1000
618320
1002
}
1002
{
1070
     5
1000
598122
1002
}
1002
{
1070
     3
1000
411603
1002
}
  0
LINE
  5
163
330
11A
100
AcDbEntity
  8
_ARDEX - BUTYNOL_
  6
Continuous
370
     9
100
AcDbLine
 10
1.493658486305548
 20
20.43841384340685
 30
0.0
 11
1.493658486305543
 21
21.75091384340683
 31
0.0
1001
REVIT
1002
{
1070
     1
1000
618320
1002
}
1002
{
1070
     5
1000
598122
1002
}
1002
{
1070
     3
1000
411603
1002
}
  0
LINE
  5
164
330
11A
100
AcDbEntity
  8
_ARDEX - BUTYNOL_
  6
Continuous
370
     9
100
AcDbLine
 10
-1.506341513694477
 20
19.72193290128149
 30
0.0
 11
-1.506341513694482
 21
21.03443290128147
 31
0.0
1001
REVIT
1002
{
1070
     1
1000
618320
1002
}
1002
{
1070
     5
1000
598122
1002
}
1002
{
1070
     3
1000
411603
1002
}
  0
LINE
  5
165
330
11A
100
AcDbEntity
  8
_ARDEX - BUTYNOL_
  6
Continuous
370
     9
100
AcDbLine
 10
-1.506341513694482
 20
21.03443290128147
 30
0.0
 11
-2.006341513694477
 21
21.13376941092727
 31
0.0
1001
REVIT
1002
{
1070
     1
1000
618320
1002
}
1002
{
1070
     5
1000
598122
1002
}
1002
{
1070
     3
1000
411603
1002
}
  0
LINE
  5
166
330
11A
100
AcDbEntity
  8
_ARDEX - BUTYNOL_
  6
Continuous
370
     9
100
AcDbLine
 10
-2.00634151369448
 20
21.13376941092727
 30
0.0
 11
1.99365848630549
 21
21.83907733376104
 31
0.0
1001
REVIT
1002
{
1070
     1
1000
618320
1002
}
1002
{
1070
     5
1000
598122
1002
}
1002
{
1070
     3
1000
411603
1002
}
  0
LINE
  5
167
330
11A
100
AcDbEntity
  8
_ARDEX - BUTYNOL_
  6
Continuous
370
     9
100
AcDbLine
 10
1.993658486305489
 20
21.83907733376104
 30
0.0
 11
1.493658486305485
 21
21.93841384340685
 31
0.0
1001
REVIT
1002
{
1070
     1
1000
618320
1002
}
1002
{
1070
     5
1000
598122
1002
}
1002
{
1070
     3
1000
411603
1002
}
  0
LINE
  5
168
330
11A
100
AcDbEntity
  8
_ARDEX - BUTYNOL_
  6
Continuous
370
     9
100
AcDbLine
 10
1.493170677559818
 20
21.94870379809357
 30
0.0
 11
1.493170677559813
 21
23.26120379809355
 31
0.0
1001
REVIT
1002
{
1070
     1
1000
618320
1002
}
1002
{
1070
     5
1000
598122
1002
}
1002
{
1070
     3
1000
411603
1002
}
  0
LINE
  5
169
330
11A
100
AcDbEntity
  8
_ARDEX - BUTYNOL_
  6
Continuous
370
     9
100
AcDbLine
 10
-1.506829322440207
 20
21.23222285596821
 30
0.0
 11
-1.506829322440212
 21
22.54472285596818
 31
0.0
1001
REVIT
1002
{
1070
     1
1000
618320
1002
}
1002
{
1070
     5
1000
598122
1002
}
1002
{
1070
     3
1000
411603
1002
}
  0
LINE
  5
16A
330
11A
100
AcDbEntity
  8
_ARDEX - BUTYNOL_
  6
Continuous
370
     9
100
AcDbLine
 10
-1.506829322440212
 20
22.54472285596818
 30
0.0
 11
-2.006829322440208
 21
22.64405936561399
 31
0.0
1001
REVIT
1002
{
1070
     1
1000
618320
1002
}
1002
{
1070
     5
1000
598122
1002
}
1002
{
1070
     3
1000
411603
1002
}
  0
LINE
  5
16B
330
11A
100
AcDbEntity
  8
_ARDEX - BUTYNOL_
  6
Continuous
370
     9
100
AcDbLine
 10
-2.006829322440211
 20
22.64405936561399
 30
0.0
 11
1.99317067755976
 21
23.34936728844776
 31
0.0
1001
REVIT
1002
{
1070
     1
1000
618320
1002
}
1002
{
1070
     5
1000
598122
1002
}
1002
{
1070
     3
1000
411603
1002
}
  0
LINE
  5
16C
330
11A
100
AcDbEntity
  8
_ARDEX - BUTYNOL_
  6
Continuous
370
     9
100
AcDbLine
 10
1.993170677559759
 20
23.34936728844776
 30
0.0
 11
1.493170677559755
 21
23.44870379809357
 31
0.0
1001
REVIT
1002
{
1070
     1
1000
618320
1002
}
1002
{
1070
     5
1000
598122
1002
}
1002
{
1070
     3
1000
411603
1002
}
  0
LINE
  5
16D
330
11A
100
AcDbEntity
  8
_ARDEX - BUTYNOL_
  6
Continuous
370
     9
100
AcDbLine
 10
1.492682868814087
 20
23.45899375278028
 30
0.0
 11
1.492682868814082
 21
24.77149375278026
 31
0.0
1001
REVIT
1002
{
1070
     1
1000
618320
1002
}
1002
{
1070
     5
1000
598122
1002
}
1002
{
1070
     3
1000
411603
1002
}
  0
LINE
  5
16E
330
11A
100
AcDbEntity
  8
_ARDEX - BUTYNOL_
  6
Continuous
370
     9
100
AcDbLine
 10
-1.507317131185938
 20
22.74251281065492
 30
0.0
 11
-1.507317131185943
 21
24.0550128106549
 31
0.0
1001
REVIT
1002
{
1070
     1
1000
618320
1002
}
1002
{
1070
     5
1000
598122
1002
}
1002
{
1070
     3
1000
411603
1002
}
  0
LINE
  5
16F
330
11A
100
AcDbEntity
  8
_ARDEX - BUTYNOL_
  6
Continuous
370
     9
100
AcDbLine
 10
-1.507317131185943
 20
24.0550128106549
 30
0.0
 11
-2.007317131185938
 21
24.1543493203007
 31
0.0
1001
REVIT
1002
{
1070
     1
1000
618320
1002
}
1002
{
1070
     5
1000
598122
1002
}
1002
{
1070
     3
1000
411603
1002
}
  0
LINE
  5
170
330
11A
100
AcDbEntity
  8
_ARDEX - BUTYNOL_
  6
Continuous
370
     9
100
AcDbLine
 10
-2.007317131185941
 20
24.1543493203007
 30
0.0
 11
1.992682868814029
 21
24.85965724313447
 31
0.0
1001
REVIT
1002
{
1070
     1
1000
618320
1002
}
1002
{
1070
     5
1000
598122
1002
}
1002
{
1070
     3
1000
411603
1002
}
  0
LINE
  5
171
330
11A
100
AcDbEntity
  8
_ARDEX - BUTYNOL_
  6
Continuous
370
     9
100
AcDbLine
 10
1.992682868814029
 20
24.85965724313447
 30
0.0
 11
1.492682868814025
 21
24.95899375278028
 31
0.0
1001
REVIT
1002
{
1070
     1
1000
618320
1002
}
1002
{
1070
     5
1000
598122
1002
}
1002
{
1070
     3
1000
411603
1002
}
  0
LINE
  5
172
330
11A
100
AcDbEntity
  8
_ARDEX - BUTYNOL_
  6
Continuous
370
     9
100
AcDbLine
 10
1.492195060068357
 20
24.96928370746699
 30
0.0
 11
1.492195060068352
 21
26.28178370746697
 31
0.0
1001
REVIT
1002
{
1070
     1
1000
618320
1002
}
1002
{
1070
     5
1000
598122
1002
}
1002
{
1070
     3
1000
411603
1002
}
  0
LINE
  5
173
330
11A
100
AcDbEntity
  8
_ARDEX - BUTYNOL_
  6
Continuous
370
     9
100
AcDbLine
 10
-1.507804939931668
 20
24.25280276534163
 30
0.0
 11
-1.507804939931673
 21
25.56530276534161
 31
0.0
1001
REVIT
1002
{
1070
     1
1000
618320
1002
}
1002
{
1070
     5
1000
598122
1002
}
1002
{
1070
     3
1000
411603
1002
}
  0
LINE
  5
174
330
11A
100
AcDbEntity
  8
_ARDEX - BUTYNOL_
  6
Continuous
370
     9
100
AcDbLine
 10
-1.507804939931673
 20
25.56530276534161
 30
0.0
 11
-2.007804939931669
 21
25.66463927498741
 31
0.0
1001
REVIT
1002
{
1070
     1
1000
618320
1002
}
1002
{
1070
     5
1000
598122
1002
}
1002
{
1070
     3
1000
411603
1002
}
  0
LINE
  5
175
330
11A
100
AcDbEntity
  8
_ARDEX - BUTYNOL_
  6
Continuous
370
     9
100
AcDbLine
 10
-2.007804939931671
 20
25.66463927498741
 30
0.0
 11
1.992195060068299
 21
26.36994719782119
 31
0.0
1001
REVIT
1002
{
1070
     1
1000
618320
1002
}
1002
{
1070
     5
1000
598122
1002
}
1002
{
1070
     3
1000
411603
1002
}
  0
LINE
  5
176
330
11A
100
AcDbEntity
  8
_ARDEX - BUTYNOL_
  6
Continuous
370
     9
100
AcDbLine
 10
1.992195060068298
 20
26.36994719782119
 30
0.0
 11
1.492195060068294
 21
26.46928370746699
 31
0.0
1001
REVIT
1002
{
1070
     1
1000
618320
1002
}
1002
{
1070
     5
1000
598122
1002
}
1002
{
1070
     3
1000
411603
1002
}
  0
LINE
  5
177
330
11A
100
AcDbEntity
  8
_ARDEX - BUTYNOL_
  6
Continuous
370
     9
100
AcDbLine
 10
1.491707251322627
 20
26.4795736621537
 30
0.0
 11
1.491707251322622
 21
27.79207366215369
 31
0.0
1001
REVIT
1002
{
1070
     1
1000
618320
1002
}
1002
{
1070
     5
1000
598122
1002
}
1002
{
1070
     3
1000
411603
1002
}
  0
LINE
  5
178
330
11A
100
AcDbEntity
  8
_ARDEX - BUTYNOL_
  6
Continuous
370
     9
100
AcDbLine
 10
-1.508292748677398
 20
25.76309272002835
 30
0.0
 11
-1.508292748677403
 21
27.07559272002832
 31
0.0
1001
REVIT
1002
{
1070
     1
1000
618320
1002
}
1002
{
1070
     5
1000
598122
1002
}
1002
{
1070
     3
1000
411603
1002
}
  0
LINE
  5
179
330
11A
100
AcDbEntity
  8
_ARDEX - BUTYNOL_
  6
Continuous
370
     9
100
AcDbLine
 10
-1.508292748677403
 20
27.07559272002832
 30
0.0
 11
-2.008292748677399
 21
27.17492922967413
 31
0.0
1001
REVIT
1002
{
1070
     1
1000
618320
1002
}
1002
{
1070
     5
1000
598122
1002
}
1002
{
1070
     3
1000
411603
1002
}
  0
LINE
  5
17A
330
11A
100
AcDbEntity
  8
_ARDEX - BUTYNOL_
  6
Continuous
370
     9
100
AcDbLine
 10
-2.008292748677401
 20
27.17492922967413
 30
0.0
 11
1.991707251322569
 21
27.8802371525079
 31
0.0
1001
REVIT
1002
{
1070
     1
1000
618320
1002
}
1002
{
1070
     5
1000
598122
1002
}
1002
{
1070
     3
1000
411603
1002
}
  0
LINE
  5
17B
330
11A
100
AcDbEntity
  8
_ARDEX - BUTYNOL_
  6
Continuous
370
     9
100
AcDbLine
 10
1.991707251322568
 20
27.8802371525079
 30
0.0
 11
1.491707251322564
 21
27.97957366215371
 31
0.0
1001
REVIT
1002
{
1070
     1
1000
618320
1002
}
1002
{
1070
     5
1000
598122
1002
}
1002
{
1070
     3
1000
411603
1002
}
  0
LINE
  5
17C
330
11A
100
AcDbEntity
  8
_ARDEX - BUTYNOL_
  6
Continuous
370
     9
100
AcDbLine
 10
1.491219442576896
 20
27.98986361684042
 30
0.0
 11
1.491219442576891
 21
29.30236361684041
 31
0.0
1001
REVIT
1002
{
1070
     1
1000
618320
1002
}
1002
{
1070
     5
1000
598122
1002
}
1002
{
1070
     3
1000
411603
1002
}
  0
LINE
  5
17D
330
11A
100
AcDbEntity
  8
_ARDEX - BUTYNOL_
  6
Continuous
370
     9
100
AcDbLine
 10
-1.508780557423129
 20
27.27338267471507
 30
0.0
 11
-1.508780557423134
 21
28.58588267471504
 31
0.0
1001
REVIT
1002
{
1070
     1
1000
618320
1002
}
1002
{
1070
     5
1000
598122
1002
}
1002
{
1070
     3
1000
411603
1002
}
  0
LINE
  5
17E
330
11A
100
AcDbEntity
  8
_ARDEX - BUTYNOL_
  6
Continuous
370
     9
100
AcDbLine
 10
-1.508780557423134
 20
28.58588267471504
 30
0.0
 11
-2.008780557423129
 21
28.68521918436085
 31
0.0
1001
REVIT
1002
{
1070
     1
1000
618320
1002
}
1002
{
1070
     5
1000
598122
1002
}
1002
{
1070
     3
1000
411603
1002
}
  0
LINE
  5
17F
330
11A
100
AcDbEntity
  8
_ARDEX - BUTYNOL_
  6
Continuous
370
     9
100
AcDbLine
 10
-2.008780557423132
 20
28.68521918436085
 30
0.0
 11
1.991219442576838
 21
29.39052710719462
 31
0.0
1001
REVIT
1002
{
1070
     1
1000
618320
1002
}
1002
{
1070
     5
1000
598122
1002
}
1002
{
1070
     3
1000
411603
1002
}
  0
LINE
  5
180
330
11A
100
AcDbEntity
  8
_ARDEX - BUTYNOL_
  6
Continuous
370
     9
100
AcDbLine
 10
1.991219442576838
 20
29.39052710719462
 30
0.0
 11
1.491219442576833
 21
29.48986361684042
 31
0.0
1001
REVIT
1002
{
1070
     1
1000
618320
1002
}
1002
{
1070
     5
1000
598122
1002
}
1002
{
1070
     3
1000
411603
1002
}
  0
LINE
  5
181
330
11A
100
AcDbEntity
  8
_ARDEX - BUTYNOL_
  6
Continuous
370
     9
100
AcDbLine
 10
1.490731633831166
 20
29.50015357152714
 30
0.0
 11
1.490731633831161
 21
30.81265357152712
 31
0.0
1001
REVIT
1002
{
1070
     1
1000
618320
1002
}
1002
{
1070
     5
1000
598122
1002
}
1002
{
1070
     3
1000
411603
1002
}
  0
LINE
  5
182
330
11A
100
AcDbEntity
  8
_ARDEX - BUTYNOL_
  6
Continuous
370
     9
100
AcDbLine
 10
-1.509268366168859
 20
28.78367262940178
 30
0.0
 11
-1.509268366168864
 21
30.09617262940175
 31
0.0
1001
REVIT
1002
{
1070
     1
1000
618320
1002
}
1002
{
1070
     5
1000
598122
1002
}
1002
{
1070
     3
1000
411603
1002
}
  0
LINE
  5
183
330
11A
100
AcDbEntity
  8
_ARDEX - BUTYNOL_
  6
Continuous
370
     9
100
AcDbLine
 10
-1.509268366168864
 20
30.09617262940175
 30
0.0
 11
-2.00926836616886
 21
30.19550913904756
 31
0.0
1001
REVIT
1002
{
1070
     1
1000
618320
1002
}
1002
{
1070
     5
1000
598122
1002
}
1002
{
1070
     3
1000
411603
1002
}
  0
LINE
  5
184
330
11A
100
AcDbEntity
  8
_ARDEX - BUTYNOL_
  6
Continuous
370
     9
100
AcDbLine
 10
-2.009268366168862
 20
30.19550913904756
 30
0.0
 11
1.990731633831108
 21
30.90081706188133
 31
0.0
1001
REVIT
1002
{
1070
     1
1000
618320
1002
}
1002
{
1070
     5
1000
598122
1002
}
1002
{
1070
     3
1000
411603
1002
}
  0
LINE
  5
185
330
11A
100
AcDbEntity
  8
_ARDEX - BUTYNOL_
  6
Continuous
370
     9
100
AcDbLine
 10
1.990731633831107
 20
30.90081706188133
 30
0.0
 11
1.490731633831103
 21
31.00015357152714
 31
0.0
1001
REVIT
1002
{
1070
     1
1000
618320
1002
}
1002
{
1070
     5
1000
598122
1002
}
1002
{
1070
     3
1000
411603
1002
}
  0
LINE
  5
186
330
11A
100
AcDbEntity
  8
_ARDEX - BUTYNOL_
  6
Continuous
370
     9
100
AcDbLine
 10
1.490243825085436
 20
31.01044352621384
 30
0.0
 11
1.490243825085431
 21
32.32294352621383
 31
0.0
1001
REVIT
1002
{
1070
     1
1000
618320
1002
}
1002
{
1070
     5
1000
598122
1002
}
1002
{
1070
     3
1000
411603
1002
}
  0
LINE
  5
187
330
11A
100
AcDbEntity
  8
_ARDEX - BUTYNOL_
  6
Continuous
370
     9
100
AcDbLine
 10
-1.509756174914589
 20
30.29396258408848
 30
0.0
 11
-1.509756174914594
 21
31.60646258408846
 31
0.0
1001
REVIT
1002
{
1070
     1
1000
618320
1002
}
1002
{
1070
     5
1000
598122
1002
}
1002
{
1070
     3
1000
411603
1002
}
  0
LINE
  5
188
330
11A
100
AcDbEntity
  8
_ARDEX - BUTYNOL_
  6
Continuous
370
     9
100
AcDbLine
 10
-1.509756174914594
 20
31.60646258408846
 30
0.0
 11
-2.00975617491459
 21
31.70579909373427
 31
0.0
1001
REVIT
1002
{
1070
     1
1000
618320
1002
}
1002
{
1070
     5
1000
598122
1002
}
1002
{
1070
     3
1000
411603
1002
}
  0
LINE
  5
189
330
11A
100
AcDbEntity
  8
_ARDEX - BUTYNOL_
  6
Continuous
370
     9
100
AcDbLine
 10
-2.009756174914592
 20
31.70579909373427
 30
0.0
 11
1.990243825085378
 21
32.41110701656804
 31
0.0
1001
REVIT
1002
{
1070
     1
1000
618320
1002
}
1002
{
1070
     5
1000
598122
1002
}
1002
{
1070
     3
1000
411603
1002
}
  0
LINE
  5
18A
330
11A
100
AcDbEntity
  8
_ARDEX - BUTYNOL_
  6
Continuous
370
     9
100
AcDbLine
 10
1.990243825085377
 20
32.41110701656804
 30
0.0
 11
1.490243825085373
 21
32.51044352621384
 31
0.0
1001
REVIT
1002
{
1070
     1
1000
618320
1002
}
1002
{
1070
     5
1000
598122
1002
}
1002
{
1070
     3
1000
411603
1002
}
  0
LINE
  5
18B
330
11A
100
AcDbEntity
  8
_ARDEX - BUTYNOL_
  6
Continuous
370
     9
100
AcDbLine
 10
1.489756016339705
 20
32.52073348090056
 30
0.0
 11
1.4897560163397
 21
33.83323348090055
 31
0.0
1001
REVIT
1002
{
1070
     1
1000
618320
1002
}
1002
{
1070
     5
1000
598122
1002
}
1002
{
1070
     3
1000
411603
1002
}
  0
LINE
  5
18C
330
11A
100
AcDbEntity
  8
_ARDEX - BUTYNOL_
  6
Continuous
370
     9
100
AcDbLine
 10
-1.51024398366032
 20
31.80425253877521
 30
0.0
 11
-1.510243983660325
 21
33.11675253877518
 31
0.0
1001
REVIT
1002
{
1070
     1
1000
618320
1002
}
1002
{
1070
     5
1000
598122
1002
}
1002
{
1070
     3
1000
411603
1002
}
  0
LINE
  5
18D
330
11A
100
AcDbEntity
  8
_ARDEX - BUTYNOL_
  6
Continuous
370
     9
100
AcDbLine
 10
-1.510243983660325
 20
33.11675253877518
 30
0.0
 11
-2.01024398366032
 21
33.21608904842099
 31
0.0
1001
REVIT
1002
{
1070
     1
1000
618320
1002
}
1002
{
1070
     5
1000
598122
1002
}
1002
{
1070
     3
1000
411603
1002
}
  0
LINE
  5
18E
330
11A
100
AcDbEntity
  8
_ARDEX - BUTYNOL_
  6
Continuous
370
     9
100
AcDbLine
 10
-2.010243983660323
 20
33.21608904842099
 30
0.0
 11
1.989756016339647
 21
33.92139697125476
 31
0.0
1001
REVIT
1002
{
1070
     1
1000
618320
1002
}
1002
{
1070
     5
1000
598122
1002
}
1002
{
1070
     3
1000
411603
1002
}
  0
LINE
  5
18F
330
11A
100
AcDbEntity
  8
_ARDEX - BUTYNOL_
  6
Continuous
370
     9
100
AcDbLine
 10
1.989756016339646
 20
33.92139697125476
 30
0.0
 11
1.489756016339642
 21
34.02073348090056
 31
0.0
1001
REVIT
1002
{
1070
     1
1000
618320
1002
}
1002
{
1070
     5
1000
598122
1002
}
1002
{
1070
     3
1000
411603
1002
}
  0
LINE
  5
190
330
11A
100
AcDbEntity
  8
_ARDEX - BUTYNOL_
  6
Continuous
370
     9
100
AcDbLine
 10
1.489268207593975
 20
34.03102343558727
 30
0.0
 11
1.48926820759397
 21
35.34352343558725
 31
0.0
1001
REVIT
1002
{
1070
     1
1000
618320
1002
}
1002
{
1070
     5
1000
598122
1002
}
1002
{
1070
     3
1000
411603
1002
}
  0
LINE
  5
191
330
11A
100
AcDbEntity
  8
_ARDEX - BUTYNOL_
  6
Continuous
370
     9
100
AcDbLine
 10
-1.51073179240605
 20
33.31454249346192
 30
0.0
 11
-1.510731792406055
 21
34.62704249346189
 31
0.0
1001
REVIT
1002
{
1070
     1
1000
618320
1002
}
1002
{
1070
     5
1000
598122
1002
}
1002
{
1070
     3
1000
411603
1002
}
  0
LINE
  5
192
330
11A
100
AcDbEntity
  8
_ARDEX - BUTYNOL_
  6
Continuous
370
     9
100
AcDbLine
 10
-1.510731792406055
 20
34.62704249346189
 30
0.0
 11
-2.01073179240605
 21
34.7263790031077
 31
0.0
1001
REVIT
1002
{
1070
     1
1000
618320
1002
}
1002
{
1070
     5
1000
598122
1002
}
1002
{
1070
     3
1000
411603
1002
}
  0
LINE
  5
193
330
11A
100
AcDbEntity
  8
_ARDEX - BUTYNOL_
  6
Continuous
370
     9
100
AcDbLine
 10
-2.010731792406053
 20
34.7263790031077
 30
0.0
 11
1.989268207593917
 21
35.43168692594147
 31
0.0
1001
REVIT
1002
{
1070
     1
1000
618320
1002
}
1002
{
1070
     5
1000
598122
1002
}
1002
{
1070
     3
1000
411603
1002
}
  0
LINE
  5
194
330
11A
100
AcDbEntity
  8
_ARDEX - BUTYNOL_
  6
Continuous
370
     9
100
AcDbLine
 10
1.989268207593916
 20
35.43168692594147
 30
0.0
 11
1.489268207593912
 21
35.53102343558727
 31
0.0
1001
REVIT
1002
{
1070
     1
1000
618320
1002
}
1002
{
1070
     5
1000
598122
1002
}
1002
{
1070
     3
1000
411603
1002
}
  0
LINE
  5
195
330
11A
100
AcDbEntity
  8
_ARDEX - BUTYNOL_
  6
Continuous
370
     9
100
AcDbLine
 10
1.488780398848245
 20
35.54131339027398
 30
0.0
 11
1.48878039884824
 21
36.85381339027396
 31
0.0
1001
REVIT
1002
{
1070
     1
1000
618320
1002
}
1002
{
1070
     5
1000
598122
1002
}
1002
{
1070
     3
1000
411603
1002
}
  0
LINE
  5
196
330
11A
100
AcDbEntity
  8
_ARDEX - BUTYNOL_
  6
Continuous
370
     9
100
AcDbLine
 10
-1.51121960115178
 20
34.82483244814863
 30
0.0
 11
-1.511219601151785
 21
36.13733244814861
 31
0.0
1001
REVIT
1002
{
1070
     1
1000
618320
1002
}
1002
{
1070
     5
1000
598122
1002
}
1002
{
1070
     3
1000
411603
1002
}
  0
LINE
  5
197
330
11A
100
AcDbEntity
  8
_ARDEX - BUTYNOL_
  6
Continuous
370
     9
100
AcDbLine
 10
-1.511219601151785
 20
36.13733244814861
 30
0.0
 11
-2.011219601151781
 21
36.23666895779441
 31
0.0
1001
REVIT
1002
{
1070
     1
1000
618320
1002
}
1002
{
1070
     5
1000
598122
1002
}
1002
{
1070
     3
1000
411603
1002
}
  0
LINE
  5
198
330
11A
100
AcDbEntity
  8
_ARDEX - BUTYNOL_
  6
Continuous
370
     9
100
AcDbLine
 10
-2.011219601151783
 20
36.23666895779441
 30
0.0
 11
1.988780398848186
 21
36.94197688062818
 31
0.0
1001
REVIT
1002
{
1070
     1
1000
618320
1002
}
1002
{
1070
     5
1000
598122
1002
}
1002
{
1070
     3
1000
411603
1002
}
  0
LINE
  5
199
330
11A
100
AcDbEntity
  8
_ARDEX - BUTYNOL_
  6
Continuous
370
     9
100
AcDbLine
 10
1.988780398848186
 20
36.94197688062818
 30
0.0
 11
1.488780398848182
 21
37.04131339027398
 31
0.0
1001
REVIT
1002
{
1070
     1
1000
618320
1002
}
1002
{
1070
     5
1000
598122
1002
}
1002
{
1070
     3
1000
411603
1002
}
  0
LINE
  5
19A
330
11A
100
AcDbEntity
  8
_ARDEX - BUTYNOL_
  6
Continuous
370
     9
100
AcDbLine
 10
1.488292590102514
 20
37.0516033449607
 30
0.0
 11
1.48829259010251
 21
38.36410334496069
 31
0.0
1001
REVIT
1002
{
1070
     1
1000
618320
1002
}
1002
{
1070
     5
1000
598122
1002
}
1002
{
1070
     3
1000
411603
1002
}
  0
LINE
  5
19B
330
11A
100
AcDbEntity
  8
_ARDEX - BUTYNOL_
  6
Continuous
370
     9
100
AcDbLine
 10
-1.51170740989751
 20
36.33512240283534
 30
0.0
 11
-1.511707409897515
 21
37.64762240283532
 31
0.0
1001
REVIT
1002
{
1070
     1
1000
618320
1002
}
1002
{
1070
     5
1000
598122
1002
}
1002
{
1070
     3
1000
411603
1002
}
  0
LINE
  5
19C
330
11A
100
AcDbEntity
  8
_ARDEX - BUTYNOL_
  6
Continuous
370
     9
100
AcDbLine
 10
-1.511707409897515
 20
37.64762240283532
 30
0.0
 11
-2.011707409897511
 21
37.74695891248113
 31
0.0
1001
REVIT
1002
{
1070
     1
1000
618320
1002
}
1002
{
1070
     5
1000
598122
1002
}
1002
{
1070
     3
1000
411603
1002
}
  0
LINE
  5
19D
330
11A
100
AcDbEntity
  8
_ARDEX - BUTYNOL_
  6
Continuous
370
     9
100
AcDbLine
 10
-2.011707409897514
 20
37.74695891248113
 30
0.0
 11
1.988292590102468
 21
38.45226683531489
 31
0.0
1001
REVIT
1002
{
1070
     1
1000
618320
1002
}
1002
{
1070
     5
1000
598122
1002
}
1002
{
1070
     3
1000
411603
1002
}
  0
LINE
  5
19E
330
11A
100
AcDbEntity
  8
_ARDEX - BUTYNOL_
  6
Continuous
370
     9
100
AcDbLine
 10
1.988292590102459
 20
38.45226683531489
 30
0.0
 11
1.488292590102452
 21
38.55160334496071
 31
0.0
1001
REVIT
1002
{
1070
     1
1000
618320
1002
}
1002
{
1070
     5
1000
598122
1002
}
1002
{
1070
     3
1000
411603
1002
}
  0
LINE
  5
19F
330
11A
100
AcDbEntity
  8
_ARDEX - BUTYNOL_
  6
Continuous
370
     9
100
AcDbLine
 10
1.487804781356784
 20
38.56189329964741
 30
0.0
 11
1.487804781356779
 21
39.8743932996474
 31
0.0
1001
REVIT
1002
{
1070
     1
1000
618320
1002
}
1002
{
1070
     5
1000
598122
1002
}
1002
{
1070
     3
1000
411603
1002
}
  0
LINE
  5
1A0
330
11A
100
AcDbEntity
  8
_ARDEX - BUTYNOL_
  6
Continuous
370
     9
100
AcDbLine
 10
-1.512195218643241
 20
37.84541235752206
 30
0.0
 11
-1.512195218643246
 21
39.15791235752203
 31
0.0
1001
REVIT
1002
{
1070
     1
1000
618320
1002
}
1002
{
1070
     5
1000
598122
1002
}
1002
{
1070
     3
1000
411603
1002
}
  0
LINE
  5
1A1
330
11A
100
AcDbEntity
  8
_ARDEX - BUTYNOL_
  6
Continuous
370
     9
100
AcDbLine
 10
-1.512195218643246
 20
39.15791235752203
 30
0.0
 11
-2.012195218643241
 21
39.25724886716783
 31
0.0
1001
REVIT
1002
{
1070
     1
1000
618320
1002
}
1002
{
1070
     5
1000
598122
1002
}
1002
{
1070
     3
1000
411603
1002
}
  0
LINE
  5
1A2
330
11A
100
AcDbEntity
  8
_ARDEX - BUTYNOL_
  6
Continuous
370
     9
100
AcDbLine
 10
-2.012195218643244
 20
39.25724886716783
 30
0.0
 11
1.987804781356726
 21
39.9625567900016
 31
0.0
1001
REVIT
1002
{
1070
     1
1000
618320
1002
}
1002
{
1070
     5
1000
598122
1002
}
1002
{
1070
     3
1000
411603
1002
}
  0
LINE
  5
1A3
330
11A
100
AcDbEntity
  8
_ARDEX - BUTYNOL_
  6
Continuous
370
     9
100
AcDbLine
 10
1.987804781356725
 20
39.9625567900016
 30
0.0
 11
1.487804781356721
 21
40.0618932996474
 31
0.0
1001
REVIT
1002
{
1070
     1
1000
618320
1002
}
1002
{
1070
     5
1000
598122
1002
}
1002
{
1070
     3
1000
411603
1002
}
  0
LINE
  5
1A4
330
11A
100
AcDbEntity
  8
_ARDEX - BUTYNOL_
  6
Continuous
370
     9
100
AcDbLine
 10
1.487316972611054
 20
40.07218325433411
 30
0.0
 11
1.487316972611049
 21
41.38468325433409
 31
0.0
1001
REVIT
1002
{
1070
     1
1000
618320
1002
}
1002
{
1070
     5
1000
598122
1002
}
1002
{
1070
     3
1000
411603
1002
}
  0
LINE
  5
1A5
330
11A
100
AcDbEntity
  8
_ARDEX - BUTYNOL_
  6
Continuous
370
     9
100
AcDbLine
 10
-1.512683027388971
 20
39.35570231220875
 30
0.0
 11
-1.512683027388976
 21
40.66820231220872
 31
0.0
1001
REVIT
1002
{
1070
     1
1000
618320
1002
}
1002
{
1070
     5
1000
598122
1002
}
1002
{
1070
     3
1000
411603
1002
}
  0
LINE
  5
1A6
330
11A
100
AcDbEntity
  8
_ARDEX - BUTYNOL_
  6
Continuous
370
     9
100
AcDbLine
 10
-1.512683027388976
 20
40.66820231220872
 30
0.0
 11
-2.012683027388971
 21
40.76753882185453
 31
0.0
1001
REVIT
1002
{
1070
     1
1000
618320
1002
}
1002
{
1070
     5
1000
598122
1002
}
1002
{
1070
     3
1000
411603
1002
}
  0
LINE
  5
1A7
330
11A
100
AcDbEntity
  8
_ARDEX - BUTYNOL_
  6
Continuous
370
     9
100
AcDbLine
 10
-2.012683027388974
 20
40.76753882185453
 30
0.0
 11
1.987316972610996
 21
41.4728467446883
 31
0.0
1001
REVIT
1002
{
1070
     1
1000
618320
1002
}
1002
{
1070
     5
1000
598122
1002
}
1002
{
1070
     3
1000
411603
1002
}
  0
LINE
  5
1A8
330
11A
100
AcDbEntity
  8
_ARDEX - BUTYNOL_
  6
Continuous
370
     9
100
AcDbLine
 10
1.987316972610995
 20
41.4728467446883
 30
0.0
 11
1.487316972610991
 21
41.57218325433411
 31
0.0
1001
REVIT
1002
{
1070
     1
1000
618320
1002
}
1002
{
1070
     5
1000
598122
1002
}
1002
{
1070
     3
1000
411603
1002
}
  0
LINE
  5
1A9
330
11A
100
AcDbEntity
  8
_ARDEX - BUTYNOL_
  6
Continuous
370
     9
100
AcDbLine
 10
1.486829163865324
 20
41.58247320902082
 30
0.0
 11
1.486829163865319
 21
42.8949732090208
 31
0.0
1001
REVIT
1002
{
1070
     1
1000
618320
1002
}
1002
{
1070
     5
1000
598122
1002
}
1002
{
1070
     3
1000
411603
1002
}
  0
LINE
  5
1AA
330
11A
100
AcDbEntity
  8
_ARDEX - BUTYNOL_
  6
Continuous
370
     9
100
AcDbLine
 10
-1.513170836134701
 20
40.86599226689546
 30
0.0
 11
-1.513170836134706
 21
42.17849226689544
 31
0.0
1001
REVIT
1002
{
1070
     1
1000
618320
1002
}
1002
{
1070
     5
1000
598122
1002
}
1002
{
1070
     3
1000
411603
1002
}
  0
LINE
  5
1AB
330
11A
100
AcDbEntity
  8
_ARDEX - BUTYNOL_
  6
Continuous
370
     9
100
AcDbLine
 10
-1.513170836134706
 20
42.17849226689544
 30
0.0
 11
-2.013170836134702
 21
42.27782877654124
 31
0.0
1001
REVIT
1002
{
1070
     1
1000
618320
1002
}
1002
{
1070
     5
1000
598122
1002
}
1002
{
1070
     3
1000
411603
1002
}
  0
LINE
  5
1AC
330
11A
100
AcDbEntity
  8
_ARDEX - BUTYNOL_
  6
Continuous
370
     9
100
AcDbLine
 10
-2.013170836134705
 20
42.27782877654124
 30
0.0
 11
1.986829163865266
 21
42.98313669937502
 31
0.0
1001
REVIT
1002
{
1070
     1
1000
618320
1002
}
1002
{
1070
     5
1000
598122
1002
}
1002
{
1070
     3
1000
411603
1002
}
  0
LINE
  5
1AD
330
11A
100
AcDbEntity
  8
_ARDEX - BUTYNOL_
  6
Continuous
370
     9
100
AcDbLine
 10
1.986829163865265
 20
42.98313669937502
 30
0.0
 11
1.486829163865261
 21
43.08247320902082
 31
0.0
1001
REVIT
1002
{
1070
     1
1000
618320
1002
}
1002
{
1070
     5
1000
598122
1002
}
1002
{
1070
     3
1000
411603
1002
}
  0
LINE
  5
1AE
330
11A
100
AcDbEntity
  8
_ARDEX - BUTYNOL_
  6
Continuous
370
     9
100
AcDbLine
 10
1.486341355119593
 20
43.09276316370755
 30
0.0
 11
1.486341355119588
 21
44.40526316370753
 31
0.0
1001
REVIT
1002
{
1070
     1
1000
618320
1002
}
1002
{
1070
     5
1000
598122
1002
}
1002
{
1070
     3
1000
411603
1002
}
  0
LINE
  5
1AF
330
11A
100
AcDbEntity
  8
_ARDEX - BUTYNOL_
  6
Continuous
370
     9
100
AcDbLine
 10
-1.513658644880432
 20
42.3762822215822
 30
0.0
 11
-1.513658644880437
 21
43.68878222158217
 31
0.0
1001
REVIT
1002
{
1070
     1
1000
618320
1002
}
1002
{
1070
     5
1000
598122
1002
}
1002
{
1070
     3
1000
411603
1002
}
  0
LINE
  5
1B0
330
11A
100
AcDbEntity
  8
_ARDEX - BUTYNOL_
  6
Continuous
370
     9
100
AcDbLine
 10
-1.513658644880437
 20
43.68878222158217
 30
0.0
 11
-2.013658644880432
 21
43.78811873122797
 31
0.0
1001
REVIT
1002
{
1070
     1
1000
618320
1002
}
1002
{
1070
     5
1000
598122
1002
}
1002
{
1070
     3
1000
411603
1002
}
  0
LINE
  5
1B1
330
11A
100
AcDbEntity
  8
_ARDEX - BUTYNOL_
  6
Continuous
370
     9
100
AcDbLine
 10
-2.013658644880435
 20
43.78811873122797
 30
0.0
 11
1.986341355119535
 21
44.49342665406175
 31
0.0
1001
REVIT
1002
{
1070
     1
1000
618320
1002
}
1002
{
1070
     5
1000
598122
1002
}
1002
{
1070
     3
1000
411603
1002
}
  0
LINE
  5
1B2
330
11A
100
AcDbEntity
  8
_ARDEX - BUTYNOL_
  6
Continuous
370
     9
100
AcDbLine
 10
1.986341355119534
 20
44.49342665406175
 30
0.0
 11
1.48634135511953
 21
44.59276316370755
 31
0.0
1001
REVIT
1002
{
1070
     1
1000
618320
1002
}
1002
{
1070
     5
1000
598122
1002
}
1002
{
1070
     3
1000
411603
1002
}
  0
LINE
  5
1B3
330
11A
100
AcDbEntity
  8
_ARDEX - BUTYNOL_
  6
Continuous
370
     9
100
AcDbLine
 10
1.485853546373863
 20
44.60305311839425
 30
0.0
 11
1.485853546373858
 21
45.91555311839424
 31
0.0
1001
REVIT
1002
{
1070
     1
1000
618320
1002
}
1002
{
1070
     5
1000
598122
1002
}
1002
{
1070
     3
1000
411603
1002
}
  0
LINE
  5
1B4
330
11A
100
AcDbEntity
  8
_ARDEX - BUTYNOL_
  6
Continuous
370
     9
100
AcDbLine
 10
-1.514146453626162
 20
43.88657217626889
 30
0.0
 11
-1.514146453626167
 21
45.19907217626887
 31
0.0
1001
REVIT
1002
{
1070
     1
1000
618320
1002
}
1002
{
1070
     5
1000
598122
1002
}
1002
{
1070
     3
1000
411603
1002
}
  0
LINE
  5
1B5
330
11A
100
AcDbEntity
  8
_ARDEX - BUTYNOL_
  6
Continuous
370
     9
100
AcDbLine
 10
-1.514146453626167
 20
45.19907217626887
 30
0.0
 11
-2.014146453626163
 21
45.29840868591467
 31
0.0
1001
REVIT
1002
{
1070
     1
1000
618320
1002
}
1002
{
1070
     5
1000
598122
1002
}
1002
{
1070
     3
1000
411603
1002
}
  0
LINE
  5
1B6
330
11A
100
AcDbEntity
  8
_ARDEX - BUTYNOL_
  6
Continuous
370
     9
100
AcDbLine
 10
-2.014146453626165
 20
45.29840868591467
 30
0.0
 11
1.985853546373805
 21
46.00371660874844
 31
0.0
1001
REVIT
1002
{
1070
     1
1000
618320
1002
}
1002
{
1070
     5
1000
598122
1002
}
1002
{
1070
     3
1000
411603
1002
}
  0
LINE
  5
1B7
330
11A
100
AcDbEntity
  8
_ARDEX - BUTYNOL_
  6
Continuous
370
     9
100
AcDbLine
 10
1.985853546373804
 20
46.00371660874844
 30
0.0
 11
1.4858535463738
 21
46.10305311839424
 31
0.0
1001
REVIT
1002
{
1070
     1
1000
618320
1002
}
1002
{
1070
     5
1000
598122
1002
}
1002
{
1070
     3
1000
411603
1002
}
  0
LINE
  5
1B8
330
11A
100
AcDbEntity
  8
_ARDEX - BUTYNOL_
  6
Continuous
370
     9
100
AcDbLine
 10
1.485365737628133
 20
46.11334307308096
 30
0.0
 11
1.485365737628128
 21
47.42584307308095
 31
0.0
1001
REVIT
1002
{
1070
     1
1000
618320
1002
}
1002
{
1070
     5
1000
598122
1002
}
1002
{
1070
     3
1000
411603
1002
}
  0
LINE
  5
1B9
330
11A
100
AcDbEntity
  8
_ARDEX - BUTYNOL_
  6
Continuous
370
     9
100
AcDbLine
 10
-1.514634262371892
 20
45.39686213095561
 30
0.0
 11
-1.514634262371897
 21
46.70936213095558
 31
0.0
1001
REVIT
1002
{
1070
     1
1000
618320
1002
}
1002
{
1070
     5
1000
598122
1002
}
1002
{
1070
     3
1000
411603
1002
}
  0
LINE
  5
1BA
330
11A
100
AcDbEntity
  8
_ARDEX - BUTYNOL_
  6
Continuous
370
     9
100
AcDbLine
 10
-1.514634262371897
 20
46.70936213095558
 30
0.0
 11
-2.014634262371893
 21
46.80869864060138
 31
0.0
1001
REVIT
1002
{
1070
     1
1000
618320
1002
}
1002
{
1070
     5
1000
598122
1002
}
1002
{
1070
     3
1000
411603
1002
}
  0
LINE
  5
1BB
330
11A
100
AcDbEntity
  8
_ARDEX - BUTYNOL_
  6
Continuous
370
     9
100
AcDbLine
 10
-2.014634262371896
 20
46.80869864060138
 30
0.0
 11
1.985365737628074
 21
47.51400656343515
 31
0.0
1001
REVIT
1002
{
1070
     1
1000
618320
1002
}
1002
{
1070
     5
1000
598122
1002
}
1002
{
1070
     3
1000
411603
1002
}
  0
LINE
  5
1BC
330
11A
100
AcDbEntity
  8
_ARDEX - BUTYNOL_
  6
Continuous
370
     9
100
AcDbLine
 10
1.985365737628074
 20
47.51400656343515
 30
0.0
 11
1.48536573762807
 21
47.61334307308096
 31
0.0
1001
REVIT
1002
{
1070
     1
1000
618320
1002
}
1002
{
1070
     5
1000
598122
1002
}
1002
{
1070
     3
1000
411603
1002
}
  0
LINE
  5
1BD
330
11A
100
AcDbEntity
  8
_ARDEX - BUTYNOL_
  6
Continuous
370
     9
100
AcDbLine
 10
1.484877928882402
 20
47.62363302776769
 30
0.0
 11
1.484877928882397
 21
48.93613302776767
 31
0.0
1001
REVIT
1002
{
1070
     1
1000
618320
1002
}
1002
{
1070
     5
1000
598122
1002
}
1002
{
1070
     3
1000
411603
1002
}
  0
LINE
  5
1BE
330
11A
100
AcDbEntity
  8
_ARDEX - BUTYNOL_
  6
Continuous
370
     9
100
AcDbLine
 10
-1.515122071117623
 20
46.90715208564234
 30
0.0
 11
-1.515122071117628
 21
48.21965208564231
 31
0.0
1001
REVIT
1002
{
1070
     1
1000
618320
1002
}
1002
{
1070
     5
1000
598122
1002
}
1002
{
1070
     3
1000
411603
1002
}
  0
LINE
  5
1BF
330
11A
100
AcDbEntity
  8
_ARDEX - BUTYNOL_
  6
Continuous
370
     9
100
AcDbLine
 10
-1.515122071117628
 20
48.21965208564231
 30
0.0
 11
-2.015122071117623
 21
48.31898859528812
 31
0.0
1001
REVIT
1002
{
1070
     1
1000
618320
1002
}
1002
{
1070
     5
1000
598122
1002
}
1002
{
1070
     3
1000
411603
1002
}
  0
LINE
  5
1C0
330
11A
100
AcDbEntity
  8
_ARDEX - BUTYNOL_
  6
Continuous
370
     9
100
AcDbLine
 10
-2.015122071117626
 20
48.31898859528812
 30
0.0
 11
1.984877928882344
 21
49.02429651812188
 31
0.0
1001
REVIT
1002
{
1070
     1
1000
618320
1002
}
1002
{
1070
     5
1000
598122
1002
}
1002
{
1070
     3
1000
411603
1002
}
  0
LINE
  5
1C1
330
11A
100
AcDbEntity
  8
_ARDEX - BUTYNOL_
  6
Continuous
370
     9
100
AcDbLine
 10
1.984877928882343
 20
49.02429651812188
 30
0.0
 11
1.484877928882339
 21
49.12363302776769
 31
0.0
1001
REVIT
1002
{
1070
     1
1000
618320
1002
}
1002
{
1070
     5
1000
598122
1002
}
1002
{
1070
     3
1000
411603
1002
}
  0
LINE
  5
1C2
330
11A
100
AcDbEntity
  8
_ARDEX - BUTYNOL_
  6
Continuous
370
     9
100
AcDbLine
 10
1.484390120136672
 20
49.1339229824544
 30
0.0
 11
1.484390120136667
 21
50.44642298245438
 31
0.0
1001
REVIT
1002
{
1070
     1
1000
618320
1002
}
1002
{
1070
     5
1000
598122
1002
}
1002
{
1070
     3
1000
411603
1002
}
  0
LINE
  5
1C3
330
11A
100
AcDbEntity
  8
_ARDEX - BUTYNOL_
  6
Continuous
370
     9
100
AcDbLine
 10
-1.515609879863353
 20
48.41744204032905
 30
0.0
 11
-1.515609879863358
 21
49.72994204032902
 31
0.0
1001
REVIT
1002
{
1070
     1
1000
618320
1002
}
1002
{
1070
     5
1000
598122
1002
}
1002
{
1070
     3
1000
411603
1002
}
  0
LINE
  5
1C4
330
11A
100
AcDbEntity
  8
_ARDEX - BUTYNOL_
  6
Continuous
370
     9
100
AcDbLine
 10
-1.515609879863358
 20
49.72994204032902
 30
0.0
 11
-2.015609879863354
 21
49.82927854997483
 31
0.0
1001
REVIT
1002
{
1070
     1
1000
618320
1002
}
1002
{
1070
     5
1000
598122
1002
}
1002
{
1070
     3
1000
411603
1002
}
  0
LINE
  5
1C5
330
11A
100
AcDbEntity
  8
_ARDEX - BUTYNOL_
  6
Continuous
370
     9
100
AcDbLine
 10
-2.015609879863356
 20
49.82927854997483
 30
0.0
 11
1.984390120136614
 21
50.5345864728086
 31
0.0
1001
REVIT
1002
{
1070
     1
1000
618320
1002
}
1002
{
1070
     5
1000
598122
1002
}
1002
{
1070
     3
1000
411603
1002
}
  0
LINE
  5
1C6
330
11A
100
AcDbEntity
  8
_ARDEX - BUTYNOL_
  6
Continuous
370
     9
100
AcDbLine
 10
1.984390120136613
 20
50.5345864728086
 30
0.0
 11
1.484390120136609
 21
50.6339229824544
 31
0.0
1001
REVIT
1002
{
1070
     1
1000
618320
1002
}
1002
{
1070
     5
1000
598122
1002
}
1002
{
1070
     3
1000
411603
1002
}
  0
LINE
  5
1C7
330
11A
100
AcDbEntity
  8
_ARDEX - BUTYNOL_
  6
Continuous
370
     9
100
AcDbLine
 10
1.483902311390942
 20
50.64421293714111
 30
0.0
 11
1.483902311390937
 21
51.95671293714109
 31
0.0
1001
REVIT
1002
{
1070
     1
1000
618320
1002
}
1002
{
1070
     5
1000
598122
1002
}
1002
{
1070
     3
1000
411603
1002
}
  0
LINE
  5
1C8
330
11A
100
AcDbEntity
  8
_ARDEX - BUTYNOL_
  6
Continuous
370
     9
100
AcDbLine
 10
-1.516097688609083
 20
49.92773199501576
 30
0.0
 11
-1.516097688609088
 21
51.24023199501573
 31
0.0
1001
REVIT
1002
{
1070
     1
1000
618320
1002
}
1002
{
1070
     5
1000
598122
1002
}
1002
{
1070
     3
1000
411603
1002
}
  0
LINE
  5
1C9
330
11A
100
AcDbEntity
  8
_ARDEX - BUTYNOL_
  6
Continuous
370
     9
100
AcDbLine
 10
-1.516097688609088
 20
51.24023199501573
 30
0.0
 11
-2.016097688609084
 21
51.33956850466154
 31
0.0
1001
REVIT
1002
{
1070
     1
1000
618320
1002
}
1002
{
1070
     5
1000
598122
1002
}
1002
{
1070
     3
1000
411603
1002
}
  0
LINE
  5
1CA
330
11A
100
AcDbEntity
  8
_ARDEX - BUTYNOL_
  6
Continuous
370
     9
100
AcDbLine
 10
-2.016097688609086
 20
51.33956850466154
 30
0.0
 11
1.983902311390884
 21
52.04487642749531
 31
0.0
1001
REVIT
1002
{
1070
     1
1000
618320
1002
}
1002
{
1070
     5
1000
598122
1002
}
1002
{
1070
     3
1000
411603
1002
}
  0
LINE
  5
1CB
330
11A
100
AcDbEntity
  8
_ARDEX - BUTYNOL_
  6
Continuous
370
     9
100
AcDbLine
 10
1.983902311390883
 20
52.04487642749531
 30
0.0
 11
1.483902311390879
 21
52.14421293714111
 31
0.0
1001
REVIT
1002
{
1070
     1
1000
618320
1002
}
1002
{
1070
     5
1000
598122
1002
}
1002
{
1070
     3
1000
411603
1002
}
  0
LINE
  5
1CC
330
11A
100
AcDbEntity
  8
_ARDEX - BUTYNOL_
  6
Continuous
370
     9
100
AcDbLine
 10
1.483414502645211
 20
52.15450289182783
 30
0.0
 11
1.483414502645206
 21
53.46700289182781
 31
0.0
1001
REVIT
1002
{
1070
     1
1000
618320
1002
}
1002
{
1070
     5
1000
598122
1002
}
1002
{
1070
     3
1000
411603
1002
}
  0
LINE
  5
1CD
330
11A
100
AcDbEntity
  8
_ARDEX - BUTYNOL_
  6
Continuous
370
     9
100
AcDbLine
 10
-1.516585497354814
 20
51.43802194970247
 30
0.0
 11
-1.516585497354819
 21
52.75052194970244
 31
0.0
1001
REVIT
1002
{
1070
     1
1000
618320
1002
}
1002
{
1070
     5
1000
598122
1002
}
1002
{
1070
     3
1000
411603
1002
}
  0
LINE
  5
1CE
330
11A
100
AcDbEntity
  8
_ARDEX - BUTYNOL_
  6
Continuous
370
     9
100
AcDbLine
 10
-1.516585497354819
 20
52.75052194970244
 30
0.0
 11
-2.016585497354814
 21
52.84985845934826
 31
0.0
1001
REVIT
1002
{
1070
     1
1000
618320
1002
}
1002
{
1070
     5
1000
598122
1002
}
1002
{
1070
     3
1000
411603
1002
}
  0
LINE
  5
1CF
330
11A
100
AcDbEntity
  8
_ARDEX - BUTYNOL_
  6
Continuous
370
     9
100
AcDbLine
 10
-2.016585497354817
 20
52.84985845934826
 30
0.0
 11
1.983414502645153
 21
53.55516638218202
 31
0.0
1001
REVIT
1002
{
1070
     1
1000
618320
1002
}
1002
{
1070
     5
1000
598122
1002
}
1002
{
1070
     3
1000
411603
1002
}
  0
LINE
  5
1D0
330
11A
100
AcDbEntity
  8
_ARDEX - BUTYNOL_
  6
Continuous
370
     9
100
AcDbLine
 10
1.983414502645152
 20
53.55516638218202
 30
0.0
 11
1.483414502645148
 21
53.65450289182782
 31
0.0
1001
REVIT
1002
{
1070
     1
1000
618320
1002
}
1002
{
1070
     5
1000
598122
1002
}
1002
{
1070
     3
1000
411603
1002
}
  0
LINE
  5
1D1
330
11A
100
AcDbEntity
  8
_ARDEX - BUTYNOL_
  6
Continuous
370
     9
100
AcDbLine
 10
1.482926693899481
 20
53.66479284651454
 30
0.0
 11
1.482926693899476
 21
54.97729284651452
 31
0.0
1001
REVIT
1002
{
1070
     1
1000
618320
1002
}
1002
{
1070
     5
1000
598122
1002
}
1002
{
1070
     3
1000
411603
1002
}
  0
LINE
  5
1D2
330
11A
100
AcDbEntity
  8
_ARDEX - BUTYNOL_
  6
Continuous
370
     9
100
AcDbLine
 10
-1.517073306100544
 20
52.94831190438919
 30
0.0
 11
-1.517073306100549
 21
54.26081190438916
 31
0.0
1001
REVIT
1002
{
1070
     1
1000
618320
1002
}
1002
{
1070
     5
1000
598122
1002
}
1002
{
1070
     3
1000
411603
1002
}
  0
LINE
  5
1D3
330
11A
100
AcDbEntity
  8
_ARDEX - BUTYNOL_
  6
Continuous
370
     9
100
AcDbLine
 10
-1.517073306100549
 20
54.26081190438916
 30
0.0
 11
-2.017073306100545
 21
54.36014841403497
 31
0.0
1001
REVIT
1002
{
1070
     1
1000
618320
1002
}
1002
{
1070
     5
1000
598122
1002
}
1002
{
1070
     3
1000
411603
1002
}
  0
LINE
  5
1D4
330
11A
100
AcDbEntity
  8
_ARDEX - BUTYNOL_
  6
Continuous
370
     9
100
AcDbLine
 10
-2.017073306100547
 20
54.36014841403497
 30
0.0
 11
1.982926693899423
 21
55.06545633686873
 31
0.0
1001
REVIT
1002
{
1070
     1
1000
618320
1002
}
1002
{
1070
     5
1000
598122
1002
}
1002
{
1070
     3
1000
411603
1002
}
  0
LINE
  5
1D5
330
11A
100
AcDbEntity
  8
_ARDEX - BUTYNOL_
  6
Continuous
370
     9
100
AcDbLine
 10
1.982926693899422
 20
55.06545633686873
 30
0.0
 11
1.482926693899418
 21
55.16479284651453
 31
0.0
1001
REVIT
1002
{
1070
     1
1000
618320
1002
}
1002
{
1070
     5
1000
598122
1002
}
1002
{
1070
     3
1000
411603
1002
}
  0
LINE
  5
1D6
330
11A
100
AcDbEntity
  8
_ARDEX - BUTYNOL_
  6
Continuous
370
     9
100
AcDbLine
 10
1.482438885153751
 20
55.17508280120125
 30
0.0
 11
1.482438885153745
 21
56.48758280120123
 31
0.0
1001
REVIT
1002
{
1070
     1
1000
618320
1002
}
1002
{
1070
     5
1000
598122
1002
}
1002
{
1070
     3
1000
411603
1002
}
  0
LINE
  5
1D7
330
11A
100
AcDbEntity
  8
_ARDEX - BUTYNOL_
  6
Continuous
370
     9
100
AcDbLine
 10
-1.517561114846274
 20
54.4586018590759
 30
0.0
 11
-1.517561114846279
 21
55.77110185907587
 31
0.0
1001
REVIT
1002
{
1070
     1
1000
618320
1002
}
1002
{
1070
     5
1000
598122
1002
}
1002
{
1070
     3
1000
411603
1002
}
  0
LINE
  5
1D8
330
11A
100
AcDbEntity
  8
_ARDEX - BUTYNOL_
  6
Continuous
370
     9
100
AcDbLine
 10
-1.517561114846279
 20
55.77110185907587
 30
0.0
 11
-2.017561114846275
 21
55.87043836872168
 31
0.0
1001
REVIT
1002
{
1070
     1
1000
618320
1002
}
1002
{
1070
     5
1000
598122
1002
}
1002
{
1070
     3
1000
411603
1002
}
  0
LINE
  5
1D9
330
11A
100
AcDbEntity
  8
_ARDEX - BUTYNOL_
  6
Continuous
370
     9
100
AcDbLine
 10
-2.017561114846277
 20
55.87043836872168
 30
0.0
 11
1.982438885153692
 21
56.57574629155544
 31
0.0
1001
REVIT
1002
{
1070
     1
1000
618320
1002
}
1002
{
1070
     5
1000
598122
1002
}
1002
{
1070
     3
1000
411603
1002
}
  0
LINE
  5
1DA
330
11A
100
AcDbEntity
  8
_ARDEX - BUTYNOL_
  6
Continuous
370
     9
100
AcDbLine
 10
1.982438885153691
 20
56.57574629155544
 30
0.0
 11
1.482438885153688
 21
56.67508280120125
 31
0.0
1001
REVIT
1002
{
1070
     1
1000
618320
1002
}
1002
{
1070
     5
1000
598122
1002
}
1002
{
1070
     3
1000
411603
1002
}
  0
LINE
  5
1DB
330
11A
100
AcDbEntity
  8
_ARDEX - BUTYNOL_
  6
Continuous
370
     9
100
AcDbLine
 10
1.48195107640802
 20
56.68537275588796
 30
0.0
 11
1.481951076408015
 21
57.99787275588794
 31
0.0
1001
REVIT
1002
{
1070
     1
1000
618320
1002
}
1002
{
1070
     5
1000
598122
1002
}
1002
{
1070
     3
1000
411603
1002
}
  0
LINE
  5
1DC
330
11A
100
AcDbEntity
  8
_ARDEX - BUTYNOL_
  6
Continuous
370
     9
100
AcDbLine
 10
-1.518048923592005
 20
55.96889181376261
 30
0.0
 11
-1.51804892359201
 21
57.28139181376258
 31
0.0
1001
REVIT
1002
{
1070
     1
1000
618320
1002
}
1002
{
1070
     5
1000
598122
1002
}
1002
{
1070
     3
1000
411603
1002
}
  0
LINE
  5
1DD
330
11A
100
AcDbEntity
  8
_ARDEX - BUTYNOL_
  6
Continuous
370
     9
100
AcDbLine
 10
-1.51804892359201
 20
57.28139181376258
 30
0.0
 11
-2.018048923592005
 21
57.38072832340839
 31
0.0
1001
REVIT
1002
{
1070
     1
1000
618320
1002
}
1002
{
1070
     5
1000
598122
1002
}
1002
{
1070
     3
1000
411603
1002
}
  0
LINE
  5
1DE
330
11A
100
AcDbEntity
  8
_ARDEX - BUTYNOL_
  6
Continuous
370
     9
100
AcDbLine
 10
-2.018048923592008
 20
57.38072832340839
 30
0.0
 11
1.981951076407962
 21
58.08603624624216
 31
0.0
1001
REVIT
1002
{
1070
     1
1000
618320
1002
}
1002
{
1070
     5
1000
598122
1002
}
1002
{
1070
     3
1000
411603
1002
}
  0
LINE
  5
1DF
330
11A
100
AcDbEntity
  8
_ARDEX - BUTYNOL_
  6
Continuous
370
     9
100
AcDbLine
 10
1.981951076407961
 20
58.08603624624216
 30
0.0
 11
1.481951076407957
 21
58.18537275588797
 31
0.0
1001
REVIT
1002
{
1070
     1
1000
618320
1002
}
1002
{
1070
     5
1000
598122
1002
}
1002
{
1070
     3
1000
411603
1002
}
  0
LINE
  5
1E0
330
11A
100
AcDbEntity
  8
_ARDEX - BUTYNOL_
  6
Continuous
370
     9
100
AcDbLine
 10
1.48146326766229
 20
58.19566271057468
 30
0.0
 11
1.481463267662285
 21
59.50816271057465
 31
0.0
1001
REVIT
1002
{
1070
     1
1000
618320
1002
}
1002
{
1070
     5
1000
598122
1002
}
1002
{
1070
     3
1000
411603
1002
}
  0
LINE
  5
1E1
330
11A
100
AcDbEntity
  8
_ARDEX - BUTYNOL_
  6
Continuous
370
     9
100
AcDbLine
 10
-1.518536732337735
 20
57.47918176844932
 30
0.0
 11
-1.51853673233774
 21
58.79168176844929
 31
0.0
1001
REVIT
1002
{
1070
     1
1000
618320
1002
}
1002
{
1070
     5
1000
598122
1002
}
1002
{
1070
     3
1000
411603
1002
}
  0
LINE
  5
1E2
330
11A
100
AcDbEntity
  8
_ARDEX - BUTYNOL_
  6
Continuous
370
     9
100
AcDbLine
 10
-1.51853673233774
 20
58.79168176844929
 30
0.0
 11
-2.018536732337735
 21
58.8910182780951
 31
0.0
1001
REVIT
1002
{
1070
     1
1000
618320
1002
}
1002
{
1070
     5
1000
598122
1002
}
1002
{
1070
     3
1000
411603
1002
}
  0
LINE
  5
1E3
330
11A
100
AcDbEntity
  8
_ARDEX - BUTYNOL_
  6
Continuous
370
     9
100
AcDbLine
 10
-2.018536732337738
 20
58.8910182780951
 30
0.0
 11
1.981463267662232
 21
59.59632620092887
 31
0.0
1001
REVIT
1002
{
1070
     1
1000
618320
1002
}
1002
{
1070
     5
1000
598122
1002
}
1002
{
1070
     3
1000
411603
1002
}
  0
LINE
  5
1E4
330
11A
100
AcDbEntity
  8
_ARDEX - BUTYNOL_
  6
Continuous
370
     9
100
AcDbLine
 10
1.981463267662231
 20
59.59632620092887
 30
0.0
 11
1.481463267662227
 21
59.69566271057468
 31
0.0
1001
REVIT
1002
{
1070
     1
1000
618320
1002
}
1002
{
1070
     5
1000
598122
1002
}
1002
{
1070
     3
1000
411603
1002
}
  0
LINE
  5
1E5
330
11A
100
AcDbEntity
  8
_ARDEX - BUTYNOL_
  6
Continuous
370
     9
100
AcDbLine
 10
1.480975458916559
 20
59.70595266526139
 30
0.0
 11
1.480975458916555
 21
61.01845266526137
 31
0.0
1001
REVIT
1002
{
1070
     1
1000
618320
1002
}
1002
{
1070
     5
1000
598122
1002
}
1002
{
1070
     3
1000
411603
1002
}
  0
LINE
  5
1E6
330
11A
100
AcDbEntity
  8
_ARDEX - BUTYNOL_
  6
Continuous
370
     9
100
AcDbLine
 10
-1.519024541083465
 20
58.98947172313603
 30
0.0
 11
-1.51902454108347
 21
60.301971723136
 31
0.0
1001
REVIT
1002
{
1070
     1
1000
618320
1002
}
1002
{
1070
     5
1000
598122
1002
}
1002
{
1070
     3
1000
411603
1002
}
  0
LINE
  5
1E7
330
11A
100
AcDbEntity
  8
_ARDEX - BUTYNOL_
  6
Continuous
370
     9
100
AcDbLine
 10
-1.51902454108347
 20
60.301971723136
 30
0.0
 11
-2.019024541083466
 21
60.40130823278182
 31
0.0
1001
REVIT
1002
{
1070
     1
1000
618320
1002
}
1002
{
1070
     5
1000
598122
1002
}
1002
{
1070
     3
1000
411603
1002
}
  0
LINE
  5
1E8
330
11A
100
AcDbEntity
  8
_ARDEX - BUTYNOL_
  6
Continuous
370
     9
100
AcDbLine
 10
-2.019024541083468
 20
60.40130823278182
 30
0.0
 11
1.980975458916501
 21
61.10661615561558
 31
0.0
1001
REVIT
1002
{
1070
     1
1000
618320
1002
}
1002
{
1070
     5
1000
598122
1002
}
1002
{
1070
     3
1000
411603
1002
}
  0
LINE
  5
1E9
330
11A
100
AcDbEntity
  8
_ARDEX - BUTYNOL_
  6
Continuous
370
     9
100
AcDbLine
 10
1.980975458916501
 20
61.10661615561558
 30
0.0
 11
1.480975458916497
 21
61.20595266526139
 31
0.0
1001
REVIT
1002
{
1070
     1
1000
618320
1002
}
1002
{
1070
     5
1000
598122
1002
}
1002
{
1070
     3
1000
411603
1002
}
  0
LINE
  5
1EA
330
11A
100
AcDbEntity
  8
_ARDEX - BUTYNOL_
  6
Continuous
370
     9
100
AcDbLine
 10
1.480487650170829
 20
61.2162426199481
 30
0.0
 11
1.480487650170825
 21
62.52874261994808
 31
0.0
1001
REVIT
1002
{
1070
     1
1000
618320
1002
}
1002
{
1070
     5
1000
598122
1002
}
1002
{
1070
     3
1000
411603
1002
}
  0
LINE
  5
1EB
330
11A
100
AcDbEntity
  8
_ARDEX - BUTYNOL_
  6
Continuous
370
     9
100
AcDbLine
 10
-1.519512349829196
 20
60.49976167782275
 30
0.0
 11
-1.5195123498292
 21
61.81226167782272
 31
0.0
1001
REVIT
1002
{
1070
     1
1000
618320
1002
}
1002
{
1070
     5
1000
598122
1002
}
1002
{
1070
     3
1000
411603
1002
}
  0
LINE
  5
1EC
330
11A
100
AcDbEntity
  8
_ARDEX - BUTYNOL_
  6
Continuous
370
     9
100
AcDbLine
 10
-1.5195123498292
 20
61.81226167782272
 30
0.0
 11
-2.019512349829196
 21
61.91159818746853
 31
0.0
1001
REVIT
1002
{
1070
     1
1000
618320
1002
}
1002
{
1070
     5
1000
598122
1002
}
1002
{
1070
     3
1000
411603
1002
}
  0
LINE
  5
1ED
330
11A
100
AcDbEntity
  8
_ARDEX - BUTYNOL_
  6
Continuous
370
     9
100
AcDbLine
 10
-2.019512349829199
 20
61.91159818746853
 30
0.0
 11
1.980487650170771
 21
62.61690611030229
 31
0.0
1001
REVIT
1002
{
1070
     1
1000
618320
1002
}
1002
{
1070
     5
1000
598122
1002
}
1002
{
1070
     3
1000
411603
1002
}
  0
LINE
  5
1EE
330
11A
100
AcDbEntity
  8
_ARDEX - BUTYNOL_
  6
Continuous
370
     9
100
AcDbLine
 10
1.980487650170771
 20
62.61690611030229
 30
0.0
 11
1.480487650170767
 21
62.7162426199481
 31
0.0
1001
REVIT
1002
{
1070
     1
1000
618320
1002
}
1002
{
1070
     5
1000
598122
1002
}
1002
{
1070
     3
1000
411603
1002
}
  0
LINE
  5
1EF
330
11A
100
AcDbEntity
  8
_ARDEX - BUTYNOL_
  6
Continuous
370
     9
100
AcDbLine
 10
1.479999841425099
 20
62.72653257463481
 30
0.0
 11
1.479999841425094
 21
64.0390325746348
 31
0.0
1001
REVIT
1002
{
1070
     1
1000
618320
1002
}
1002
{
1070
     5
1000
598122
1002
}
1002
{
1070
     3
1000
411603
1002
}
  0
LINE
  5
1F0
330
11A
100
AcDbEntity
  8
_ARDEX - BUTYNOL_
  6
Continuous
370
     9
100
AcDbLine
 10
-1.520000158574926
 20
62.01005163250946
 30
0.0
 11
-1.520000158574931
 21
63.32255163250943
 31
0.0
1001
REVIT
1002
{
1070
     1
1000
618320
1002
}
1002
{
1070
     5
1000
598122
1002
}
1002
{
1070
     3
1000
411603
1002
}
  0
LINE
  5
1F1
330
11A
100
AcDbEntity
  8
_ARDEX - BUTYNOL_
  6
Continuous
370
     9
100
AcDbLine
 10
-1.520000158574931
 20
63.32255163250943
 30
0.0
 11
-2.020000158574926
 21
63.42188814215524
 31
0.0
1001
REVIT
1002
{
1070
     1
1000
618320
1002
}
1002
{
1070
     5
1000
598122
1002
}
1002
{
1070
     3
1000
411603
1002
}
  0
LINE
  5
1F2
330
11A
100
AcDbEntity
  8
_ARDEX - BUTYNOL_
  6
Continuous
370
     9
100
AcDbLine
 10
-2.020000158574929
 20
63.42188814215524
 30
0.0
 11
1.979999841425041
 21
64.127196064989
 31
0.0
1001
REVIT
1002
{
1070
     1
1000
618320
1002
}
1002
{
1070
     5
1000
598122
1002
}
1002
{
1070
     3
1000
411603
1002
}
  0
LINE
  5
1F3
330
11A
100
AcDbEntity
  8
_ARDEX - BUTYNOL_
  6
Continuous
370
     9
100
AcDbLine
 10
1.97999984142504
 20
64.127196064989
 30
0.0
 11
1.479999841425036
 21
64.22653257463482
 31
0.0
1001
REVIT
1002
{
1070
     1
1000
618320
1002
}
1002
{
1070
     5
1000
598122
1002
}
1002
{
1070
     3
1000
411603
1002
}
  0
LINE
  5
1F4
330
11A
100
AcDbEntity
  8
_ARDEX - BUTYNOL_
  6
Continuous
370
     9
100
AcDbLine
 10
1.479512032679369
 20
64.23682252932154
 30
0.0
 11
1.479512032679364
 21
65.54932252932153
 31
0.0
1001
REVIT
1002
{
1070
     1
1000
618320
1002
}
1002
{
1070
     5
1000
598122
1002
}
1002
{
1070
     3
1000
411603
1002
}
  0
LINE
  5
1F5
330
11A
100
AcDbEntity
  8
_ARDEX - BUTYNOL_
  6
Continuous
370
     9
100
AcDbLine
 10
-1.520487967320656
 20
63.52034158719619
 30
0.0
 11
-1.520487967320661
 21
64.83284158719616
 31
0.0
1001
REVIT
1002
{
1070
     1
1000
618320
1002
}
1002
{
1070
     5
1000
598122
1002
}
1002
{
1070
     3
1000
411603
1002
}
  0
LINE
  5
1F6
330
11A
100
AcDbEntity
  8
_ARDEX - BUTYNOL_
  6
Continuous
370
     9
100
AcDbLine
 10
-1.520487967320661
 20
64.83284158719616
 30
0.0
 11
-2.020487967320657
 21
64.93217809684196
 31
0.0
1001
REVIT
1002
{
1070
     1
1000
618320
1002
}
1002
{
1070
     5
1000
598122
1002
}
1002
{
1070
     3
1000
411603
1002
}
  0
LINE
  5
1F7
330
11A
100
AcDbEntity
  8
_ARDEX - BUTYNOL_
  6
Continuous
370
     9
100
AcDbLine
 10
-2.020487967320659
 20
64.93217809684196
 30
0.0
 11
1.979512032679311
 21
65.63748601967573
 31
0.0
1001
REVIT
1002
{
1070
     1
1000
618320
1002
}
1002
{
1070
     5
1000
598122
1002
}
1002
{
1070
     3
1000
411603
1002
}
  0
LINE
  5
1F8
330
11A
100
AcDbEntity
  8
_ARDEX - BUTYNOL_
  6
Continuous
370
     9
100
AcDbLine
 10
1.97951203267931
 20
65.63748601967573
 30
0.0
 11
1.479512032679306
 21
65.73682252932155
 31
0.0
1001
REVIT
1002
{
1070
     1
1000
618320
1002
}
1002
{
1070
     5
1000
598122
1002
}
1002
{
1070
     3
1000
411603
1002
}
  0
LINE
  5
1F9
330
11A
100
AcDbEntity
  8
_ARDEX - BUTYNOL_
  6
Continuous
370
     9
100
AcDbLine
 10
1.479024223933639
 20
65.74711248400825
 30
0.0
 11
1.479024223933634
 21
67.05961248400824
 31
0.0
1001
REVIT
1002
{
1070
     1
1000
618320
1002
}
1002
{
1070
     5
1000
598122
1002
}
1002
{
1070
     3
1000
411603
1002
}
  0
LINE
  5
1FA
330
11A
100
AcDbEntity
  8
_ARDEX - BUTYNOL_
  6
Continuous
370
     9
100
AcDbLine
 10
-1.520975776066386
 20
65.03063154188289
 30
0.0
 11
-1.520975776066392
 21
66.34313154188287
 31
0.0
1001
REVIT
1002
{
1070
     1
1000
618320
1002
}
1002
{
1070
     5
1000
598122
1002
}
1002
{
1070
     3
1000
411603
1002
}
  0
LINE
  5
1FB
330
11A
100
AcDbEntity
  8
_ARDEX - BUTYNOL_
  6
Continuous
370
     9
100
AcDbLine
 10
-1.520975776066392
 20
66.34313154188287
 30
0.0
 11
-2.020975776066387
 21
66.44246805152867
 31
0.0
1001
REVIT
1002
{
1070
     1
1000
618320
1002
}
1002
{
1070
     5
1000
598122
1002
}
1002
{
1070
     3
1000
411603
1002
}
  0
LINE
  5
1FC
330
11A
100
AcDbEntity
  8
_ARDEX - BUTYNOL_
  6
Continuous
370
     9
100
AcDbLine
 10
-2.02097577606639
 20
66.44246805152867
 30
0.0
 11
1.97902422393358
 21
67.14777597436245
 31
0.0
1001
REVIT
1002
{
1070
     1
1000
618320
1002
}
1002
{
1070
     5
1000
598122
1002
}
1002
{
1070
     3
1000
411603
1002
}
  0
LINE
  5
1FD
330
11A
100
AcDbEntity
  8
_ARDEX - BUTYNOL_
  6
Continuous
370
     9
100
AcDbLine
 10
1.97902422393358
 20
67.14777597436245
 30
0.0
 11
1.479024223933576
 21
67.24711248400826
 31
0.0
1001
REVIT
1002
{
1070
     1
1000
618320
1002
}
1002
{
1070
     5
1000
598122
1002
}
1002
{
1070
     3
1000
411603
1002
}
  0
LINE
  5
1FE
330
11A
100
AcDbEntity
  8
_ARDEX - BUTYNOL_
  6
Continuous
370
     9
100
AcDbLine
 10
1.478536415187908
 20
67.25740243869495
 30
0.0
 11
1.478536415187903
 21
68.56990243869494
 31
0.0
1001
REVIT
1002
{
1070
     1
1000
618320
1002
}
1002
{
1070
     5
1000
598122
1002
}
1002
{
1070
     3
1000
411603
1002
}
  0
LINE
  5
1FF
330
11A
100
AcDbEntity
  8
_ARDEX - BUTYNOL_
  6
Continuous
370
     9
100
AcDbLine
 10
-1.521463584812117
 20
66.5409214965696
 30
0.0
 11
-1.521463584812122
 21
67.85342149656957
 31
0.0
1001
REVIT
1002
{
1070
     1
1000
618320
1002
}
1002
{
1070
     5
1000
598122
1002
}
1002
{
1070
     3
1000
411603
1002
}
  0
LINE
  5
200
330
11A
100
AcDbEntity
  8
_ARDEX - BUTYNOL_
  6
Continuous
370
     9
100
AcDbLine
 10
-1.521463584812122
 20
67.85342149656957
 30
0.0
 11
-2.021463584812117
 21
67.95275800621538
 31
0.0
1001
REVIT
1002
{
1070
     1
1000
618320
1002
}
1002
{
1070
     5
1000
598122
1002
}
1002
{
1070
     3
1000
411603
1002
}
  0
LINE
  5
201
330
11A
100
AcDbEntity
  8
_ARDEX - BUTYNOL_
  6
Continuous
370
     9
100
AcDbLine
 10
-2.02146358481212
 20
67.95275800621538
 30
0.0
 11
1.97853641518785
 21
68.65806592904914
 31
0.0
1001
REVIT
1002
{
1070
     1
1000
618320
1002
}
1002
{
1070
     5
1000
598122
1002
}
1002
{
1070
     3
1000
411603
1002
}
  0
LINE
  5
202
330
11A
100
AcDbEntity
  8
_ARDEX - BUTYNOL_
  6
Continuous
370
     9
100
AcDbLine
 10
1.978536415187849
 20
68.65806592904914
 30
0.0
 11
1.478536415187845
 21
68.75740243869495
 31
0.0
1001
REVIT
1002
{
1070
     1
1000
618320
1002
}
1002
{
1070
     5
1000
598122
1002
}
1002
{
1070
     3
1000
411603
1002
}
  0
LINE
  5
203
330
11A
100
AcDbEntity
  8
_ARDEX - BUTYNOL_
  6
Continuous
370
     9
100
AcDbLine
 10
1.478048606442178
 20
68.76769239338166
 30
0.0
 11
1.478048606442173
 21
70.08019239338165
 31
0.0
1001
REVIT
1002
{
1070
     1
1000
618320
1002
}
1002
{
1070
     5
1000
598122
1002
}
1002
{
1070
     3
1000
411603
1002
}
  0
LINE
  5
204
330
11A
100
AcDbEntity
  8
_ARDEX - BUTYNOL_
  6
Continuous
370
     9
100
AcDbLine
 10
-1.521951393557847
 20
68.05121145125631
 30
0.0
 11
-1.521951393557852
 21
69.36371145125628
 31
0.0
1001
REVIT
1002
{
1070
     1
1000
618320
1002
}
1002
{
1070
     5
1000
598122
1002
}
1002
{
1070
     3
1000
411603
1002
}
  0
LINE
  5
205
330
11A
100
AcDbEntity
  8
_ARDEX - BUTYNOL_
  6
Continuous
370
     9
100
AcDbLine
 10
-1.521951393557852
 20
69.36371145125628
 30
0.0
 11
-2.021951393557848
 21
69.46304796090209
 31
0.0
1001
REVIT
1002
{
1070
     1
1000
618320
1002
}
1002
{
1070
     5
1000
598122
1002
}
1002
{
1070
     3
1000
411603
1002
}
  0
LINE
  5
206
330
11A
100
AcDbEntity
  8
_ARDEX - BUTYNOL_
  6
Continuous
370
     9
100
AcDbLine
 10
-2.02195139355785
 20
69.46304796090209
 30
0.0
 11
1.97804860644212
 21
70.16835588373585
 31
0.0
1001
REVIT
1002
{
1070
     1
1000
618320
1002
}
1002
{
1070
     5
1000
598122
1002
}
1002
{
1070
     3
1000
411603
1002
}
  0
LINE
  5
207
330
11A
100
AcDbEntity
  8
_ARDEX - BUTYNOL_
  6
Continuous
370
     9
100
AcDbLine
 10
1.978048606442119
 20
70.16835588373585
 30
0.0
 11
1.478048606442115
 21
70.26769239338166
 31
0.0
1001
REVIT
1002
{
1070
     1
1000
618320
1002
}
1002
{
1070
     5
1000
598122
1002
}
1002
{
1070
     3
1000
411603
1002
}
  0
LINE
  5
208
330
11A
100
AcDbEntity
  8
_ARDEX - BUTYNOL_
  6
Continuous
370
     9
100
AcDbLine
 10
1.477560797696447
 20
70.27798234806837
 30
0.0
 11
1.477560797696442
 21
71.59048234806836
 31
0.0
1001
REVIT
1002
{
1070
     1
1000
618320
1002
}
1002
{
1070
     5
1000
598122
1002
}
1002
{
1070
     3
1000
411603
1002
}
  0
LINE
  5
209
330
11A
100
AcDbEntity
  8
_ARDEX - BUTYNOL_
  6
Continuous
370
     9
100
AcDbLine
 10
-1.522439202303577
 20
69.56150140594302
 30
0.0
 11
-1.522439202303583
 21
70.87400140594299
 31
0.0
1001
REVIT
1002
{
1070
     1
1000
618320
1002
}
1002
{
1070
     5
1000
598122
1002
}
1002
{
1070
     3
1000
411603
1002
}
  0
LINE
  5
20A
330
11A
100
AcDbEntity
  8
_ARDEX - BUTYNOL_
  6
Continuous
370
     9
100
AcDbLine
 10
-1.522439202303583
 20
70.87400140594299
 30
0.0
 11
-2.022439202303578
 21
70.9733379155888
 31
0.0
1001
REVIT
1002
{
1070
     1
1000
618320
1002
}
1002
{
1070
     5
1000
598122
1002
}
1002
{
1070
     3
1000
411603
1002
}
  0
LINE
  5
20B
330
11A
100
AcDbEntity
  8
_ARDEX - BUTYNOL_
  6
Continuous
370
     9
100
AcDbLine
 10
-2.022439202303581
 20
70.9733379155888
 30
0.0
 11
1.977560797696389
 21
71.67864583842256
 31
0.0
1001
REVIT
1002
{
1070
     1
1000
618320
1002
}
1002
{
1070
     5
1000
598122
1002
}
1002
{
1070
     3
1000
411603
1002
}
  0
LINE
  5
20C
330
11A
100
AcDbEntity
  8
_ARDEX - BUTYNOL_
  6
Continuous
370
     9
100
AcDbLine
 10
1.977560797696389
 20
71.67864583842256
 30
0.0
 11
1.477560797696385
 21
71.77798234806838
 31
0.0
1001
REVIT
1002
{
1070
     1
1000
618320
1002
}
1002
{
1070
     5
1000
598122
1002
}
1002
{
1070
     3
1000
411603
1002
}
  0
LINE
  5
20D
330
11A
100
AcDbEntity
  8
_ARDEX - BUTYNOL_
  6
Continuous
370
     9
100
AcDbLine
 10
1.477072988950717
 20
71.78827230275508
 30
0.0
 11
1.477072988950712
 21
73.10077230275507
 31
0.0
1001
REVIT
1002
{
1070
     1
1000
618320
1002
}
1002
{
1070
     5
1000
598122
1002
}
1002
{
1070
     3
1000
411603
1002
}
  0
LINE
  5
20E
330
11A
100
AcDbEntity
  8
_ARDEX - BUTYNOL_
  6
Continuous
370
     9
100
AcDbLine
 10
-1.522927011049308
 20
71.07179136062973
 30
0.0
 11
-1.522927011049313
 21
72.3842913606297
 31
0.0
1001
REVIT
1002
{
1070
     1
1000
618320
1002
}
1002
{
1070
     5
1000
598122
1002
}
1002
{
1070
     3
1000
411603
1002
}
  0
LINE
  5
20F
330
11A
100
AcDbEntity
  8
_ARDEX - BUTYNOL_
  6
Continuous
370
     9
100
AcDbLine
 10
-1.522927011049313
 20
72.3842913606297
 30
0.0
 11
-2.022927011049308
 21
72.48362787027551
 31
0.0
1001
REVIT
1002
{
1070
     1
1000
618320
1002
}
1002
{
1070
     5
1000
598122
1002
}
1002
{
1070
     3
1000
411603
1002
}
  0
LINE
  5
210
330
11A
100
AcDbEntity
  8
_ARDEX - BUTYNOL_
  6
Continuous
370
     9
100
AcDbLine
 10
-2.022927011049311
 20
72.48362787027551
 30
0.0
 11
1.977072988950659
 21
73.18893579310928
 31
0.0
1001
REVIT
1002
{
1070
     1
1000
618320
1002
}
1002
{
1070
     5
1000
598122
1002
}
1002
{
1070
     3
1000
411603
1002
}
  0
LINE
  5
211
330
11A
100
AcDbEntity
  8
_ARDEX - BUTYNOL_
  6
Continuous
370
     9
100
AcDbLine
 10
1.977072988950658
 20
73.18893579310928
 30
0.0
 11
1.477072988950654
 21
73.28827230275509
 31
0.0
1001
REVIT
1002
{
1070
     1
1000
618320
1002
}
1002
{
1070
     5
1000
598122
1002
}
1002
{
1070
     3
1000
411603
1002
}
  0
LINE
  5
212
330
11A
100
AcDbEntity
  8
_ARDEX - BUTYNOL_
  6
Continuous
370
     9
100
AcDbLine
 10
1.476585180204987
 20
73.29856225744181
 30
0.0
 11
1.476585180204982
 21
74.6110622574418
 31
0.0
1001
REVIT
1002
{
1070
     1
1000
618320
1002
}
1002
{
1070
     5
1000
598122
1002
}
1002
{
1070
     3
1000
411603
1002
}
  0
LINE
  5
213
330
11A
100
AcDbEntity
  8
_ARDEX - BUTYNOL_
  6
Continuous
370
     9
100
AcDbLine
 10
-1.523414819795038
 20
72.58208131531645
 30
0.0
 11
-1.523414819795043
 21
73.89458131531644
 31
0.0
1001
REVIT
1002
{
1070
     1
1000
618320
1002
}
1002
{
1070
     5
1000
598122
1002
}
1002
{
1070
     3
1000
411603
1002
}
  0
LINE
  5
214
330
11A
100
AcDbEntity
  8
_ARDEX - BUTYNOL_
  6
Continuous
370
     9
100
AcDbLine
 10
-1.523414819795043
 20
73.89458131531644
 30
0.0
 11
-2.023414819795039
 21
73.99391782496223
 31
0.0
1001
REVIT
1002
{
1070
     1
1000
618320
1002
}
1002
{
1070
     5
1000
598122
1002
}
1002
{
1070
     3
1000
411603
1002
}
  0
LINE
  5
215
330
11A
100
AcDbEntity
  8
_ARDEX - BUTYNOL_
  6
Continuous
370
     9
100
AcDbLine
 10
-2.023414819795041
 20
73.99391782496223
 30
0.0
 11
1.976585180204929
 21
74.69922574779601
 31
0.0
1001
REVIT
1002
{
1070
     1
1000
618320
1002
}
1002
{
1070
     5
1000
598122
1002
}
1002
{
1070
     3
1000
411603
1002
}
  0
LINE
  5
216
330
11A
100
AcDbEntity
  8
_ARDEX - BUTYNOL_
  6
Continuous
370
     9
100
AcDbLine
 10
1.976585180204928
 20
74.69922574779601
 30
0.0
 11
1.476585180204924
 21
74.79856225744182
 31
0.0
1001
REVIT
1002
{
1070
     1
1000
618320
1002
}
1002
{
1070
     5
1000
598122
1002
}
1002
{
1070
     3
1000
411603
1002
}
  0
LINE
  5
217
330
11A
100
AcDbEntity
  8
_ARDEX - BUTYNOL_
  6
Continuous
370
     9
100
AcDbLine
 10
1.476097371459256
 20
74.80885221212853
 30
0.0
 11
1.476097371459252
 21
76.12135221212851
 31
0.0
1001
REVIT
1002
{
1070
     1
1000
618320
1002
}
1002
{
1070
     5
1000
598122
1002
}
1002
{
1070
     3
1000
411603
1002
}
  0
LINE
  5
218
330
11A
100
AcDbEntity
  8
_ARDEX - BUTYNOL_
  6
Continuous
370
     9
100
AcDbLine
 10
-1.523902628540769
 20
74.09237127000318
 30
0.0
 11
-1.523902628540773
 21
75.40487127000315
 31
0.0
1001
REVIT
1002
{
1070
     1
1000
618320
1002
}
1002
{
1070
     5
1000
598122
1002
}
1002
{
1070
     3
1000
411603
1002
}
  0
LINE
  5
219
330
11A
100
AcDbEntity
  8
_ARDEX - BUTYNOL_
  6
Continuous
370
     9
100
AcDbLine
 10
-1.523902628540773
 20
75.40487127000315
 30
0.0
 11
-2.023902628540769
 21
75.50420777964895
 31
0.0
1001
REVIT
1002
{
1070
     1
1000
618320
1002
}
1002
{
1070
     5
1000
598122
1002
}
1002
{
1070
     3
1000
411603
1002
}
  0
LINE
  5
21A
330
11A
100
AcDbEntity
  8
_ARDEX - BUTYNOL_
  6
Continuous
370
     9
100
AcDbLine
 10
-2.023902628540771
 20
75.50420777964895
 30
0.0
 11
1.976097371459198
 21
76.20951570248272
 31
0.0
1001
REVIT
1002
{
1070
     1
1000
618320
1002
}
1002
{
1070
     5
1000
598122
1002
}
1002
{
1070
     3
1000
411603
1002
}
  0
LINE
  5
21B
330
11A
100
AcDbEntity
  8
_ARDEX - BUTYNOL_
  6
Continuous
370
     9
100
AcDbLine
 10
1.976097371459198
 20
76.20951570248272
 30
0.0
 11
1.476097371459194
 21
76.30885221212853
 31
0.0
1001
REVIT
1002
{
1070
     1
1000
618320
1002
}
1002
{
1070
     5
1000
598122
1002
}
1002
{
1070
     3
1000
411603
1002
}
  0
SPLINE
  5
21C
330
11A
100
AcDbEntity
  8
_ARDEX - BUTYNOL_
  6
Continuous
370
     9
100
AcDbSpline
210
0.0
220
0.0
230
1.0
 70
     8
 71
     3
 72
     8
 73
     4
 74
     0
 42
0.000000001
 43
0.0000000001
 40
0.0
 40
0.0
 40
0.0
 40
0.0
 40
1.0
 40
1.0
 40
1.0
 40
1.0
 10
-1.496088440555538
 20
-0.000000000000009
 30
0.0
 10
-1.694009169084971
 20
-1.358414259467094
 30
0.0
 10
-2.477903536015206
 20
-2.561515725018708
 30
0.0
 10
-3.640458741208364
 20
-3.291806561305575
 30
0.0
1001
REVIT
1002
{
1070
     1
1000
618320
1002
}
1002
{
1070
     5
1000
598122
1002
}
1002
{
1070
     3
1000
411603
1002
}
  0
LINE
  5
21D
330
11A
100
AcDbEntity
  8
_ARDEX - BUTYNOL_
  6
Continuous
370
     9
100
AcDbLine
 10
-3.640458741208363
 20
-3.98956923306565
 30
0.0
 11
-3.640458741208365
 21
-3.291806561305574
 31
0.0
1001
REVIT
1002
{
1070
     1
1000
618320
1002
}
1002
{
1070
     5
1000
598122
1002
}
1002
{
1070
     3
1000
411603
1002
}
  0
SPLINE
  5
21E
330
11A
100
AcDbEntity
  8
_ARDEX - BUTYNOL_
  6
Continuous
370
     9
100
AcDbSpline
210
0.0
220
0.0
230
1.0
 70
     8
 71
     3
 72
     8
 73
     4
 74
     0
 42
0.000000001
 43
0.0000000001
 40
0.0
 40
0.0
 40
0.0
 40
0.0
 40
1.0
 40
1.0
 40
1.0
 40
1.0
 10
3.640458741208402
 20
-3.291806561305553
 30
0.0
 10
2.477903536015239
 20
-2.561515725018693
 30
0.0
 10
1.694009169084984
 20
-1.358414259467084
 30
0.0
 10
1.49608844055554
 20
0.0
 30
0.0
1001
REVIT
1002
{
1070
     1
1000
618320
1002
}
1002
{
1070
     5
1000
598122
1002
}
1002
{
1070
     3
1000
411603
1002
}
  0
LINE
  5
21F
330
11A
100
AcDbEntity
  8
_ARDEX - BUTYNOL_
  6
Continuous
370
     9
100
AcDbLine
 10
3.640458741208402
 20
-3.291806561305553
 30
0.0
 11
3.640458741208405
 21
-3.989569233065627
 31
0.0
1001
REVIT
1002
{
1070
     1
1000
618320
1002
}
1002
{
1070
     5
1000
598122
1002
}
1002
{
1070
     3
1000
411603
1002
}
  0
LINE
  5
220
330
11A
100
AcDbEntity
  8
_ARDEX - BUTYNOL_
  6
Continuous
370
     9
100
AcDbLine
 10
3.640458741208402
 20
-3.291806561305553
 30
0.0
 11
-3.640458741208364
 21
-3.291806561305576
 31
0.0
1001
REVIT
1002
{
1070
     1
1000
618320
1002
}
1002
{
1070
     5
1000
598122
1002
}
1002
{
1070
     3
1000
411603
1002
}
  0
LINE
  5
221
330
11A
100
AcDbEntity
  8
_ARDEX - BUTYNOL_
  6
Continuous
370
     9
100
AcDbLine
 10
3.640458741208405
 20
-3.989569233065627
 30
0.0
 11
-3.640458741208364
 21
-3.98956923306565
 31
0.0
1001
REVIT
1002
{
1070
     1
1000
618320
1002
}
1002
{
1070
     5
1000
598122
1002
}
1002
{
1070
     3
1000
411603
1002
}
  0
LINE
  5
222
330
11A
100
AcDbEntity
  8
_ARDEX - BUTYNOL_
  6
Continuous
370
     9
100
AcDbLine
 10
1.500000000000016
 20
0.0000000000000141
 30
0.0
 11
1.500000000000014
 21
0.6171444324795531
 31
0.0
1001
REVIT
1002
{
1070
     1
1000
618320
1002
}
1002
{
1070
     5
1000
598122
1002
}
1002
{
1070
     3
1000
411603
1002
}
  0
LINE
  5
223
330
11A
100
AcDbEntity
  8
_ARDEX - BUTYNOL_
  6
Continuous
370
     9
100
AcDbLine
 10
1.999999999999988
 20
0.7053079228337693
 30
0.0
 11
1.500000000000042
 21
0.8046444324795769
 31
0.0
1001
REVIT
1002
{
1070
     1
1000
618320
1002
}
1002
{
1070
     5
1000
598122
1002
}
1002
{
1070
     3
1000
411603
1002
}
  0
LINE
  5
224
330
11A
100
AcDbEntity
  8
_ARDEX - BUTYNOL_
  6
Continuous
370
     9
100
AcDbLine
 10
-1.999999999999981
 20
0.0000000000000011
 30
0.0
 11
1.999999999999988
 21
0.7053079228337705
 31
0.0
1001
REVIT
1002
{
1070
     1
1000
618320
1002
}
1002
{
1070
     5
1000
598122
1002
}
1002
{
1070
     3
1000
411603
1002
}
  0
ENDBLK
  5
226
330
11A
100
AcDbEntity
  8
0
100
AcDbBlockEnd
  0
BLOCK
  5
2B4
330
253
100
AcDbEntity
  8
0
100
AcDbBlockBegin
  2
_ARDEX_ Landscape Title block - ARDEX Logo_dwg-603482-WARM ROOF SYSTEM - PLYWOOD
 70
     0
 10
0.0
 20
0.0
 30
0.0
  3
_ARDEX_ Landscape Title block - ARDEX Logo_dwg-603482-WARM ROOF SYSTEM - PLYWOOD
  1

  0
HATCH
  5
2B3
330
253
100
AcDbEntity
  8
_ARDEX - WELDTEC_
100
AcDbHatch
 10
0.0
 20
0.0
 30
0.0
210
0.0
220
0.0
230
1.0
  2
SOLID
 70
     1
 71
     0
 91
       10
 92
        1
 93
        9
 72
     2
 10
124477.6924476593
 20
57717.91884407958
 40
95604.56878771125
 50
119.6582597659365
 51
135.2772449014122
 73
     1
 72
     2
 10
97569.92099523827
 20
80348.69210974658
 40
60628.55096713104
 50
132.5784142254349
 51
167.1951084870361
 73
     1
 72
     2
 10
84430.2544945385
 20
83335.13079417297
 40
47153.77261030999
 50
167.1951084870365
 51
230.8048915129539
 73
     1
 72
     1
 10
54630.80824474616
 20
46791.03038671248
 11
61031.0658797229
 21
58828.16430584775
 72
     2
 10
101776.0882193553
 20
92587.59123374682
 40
52913.66318785065
 50
140.3564374123571
 51
160.4021121620632
 73
     0
 72
     1
 10
51927.72315465329
 20
74839.45746330507
 11
64132.70340177394
 21
81604.78848708596
 72
     1
 10
64132.70340177394
 20
81604.78848708596
 11
64132.70340177394
 21
42419.71860701207
 72
     1
 10
64132.70340177394
 20
42419.71860701207
 11
77170.09142470383
 21
42419.71860701207
 72
     1
 10
77170.09142470383
 20
42419.71860701207
 11
77170.09142470405
 21
140797.5460612086
 97
        0
 92
        1
 93
       15
 72
     1
 10
99587.9892175987
 20
42419.71860701207
 11
99587.9892175987
 21
93150.58336594923
 72
     1
 10
99587.9892175987
 20
93150.58336594923
 11
104323.244612749
 21
94781.06255447839
 72
     2
 10
104981.1789583829
 20
91893.80516411493
 40
2961.272166041676
 50
257.1629146881614
 51
358.8370853117459
 73
     0
 72
     1
 10
107941.8411889871
 20
91953.90506134176
 11
107941.841188987
 21
42419.71860701207
 72
     1
 10
107941.841188987
 20
42419.71860701207
 11
121218.1847411904
 21
42419.7186070116
 72
     1
 10
121218.1847411904
 20
42419.7186070116
 11
121218.1847411906
 21
100325.0440555206
 72
     2
 10
115257.0429927786
 20
99877.23760612903
 40
5977.937902050918
 50
4.296042690475857
 51
69.70395730952316
 73
     1
 72
     2
 10
117146.8808736564
 20
109112.6270894137
 40
3633.253173235043
 50
272.8987004041956
 51
343.1012995957967
 73
     1
 72
     2
 10
107238.4034856646
 20
112122.807202992
 40
13988.8849002001
 50
343.1012995958001
 51
357.9328247994059
 73
     1
 72
     1
 10
121218.1847411906
 20
111618.2115245613
 11
121218.1847411905
 21
150938.3506316522
 72
     2
 10
117501.9377644241
 20
150938.3506316523
 40
3716.246976766372
 50
359.9999999999992
 51
450.0000000000004
 73
     1
 72
     1
 10
117501.9377644241
 20
154654.5976084187
 11
113759.3810577393
 21
154654.5976084182
 72
     2
 10
138821.7376305251
 20
43198.45589605923
 40
114239.1931098381
 50
102.672909136411
 51
117.4995807340575
 73
     1
 72
     1
 10
86072.69013612203
 20
144530.243755645
 11
86072.69013612182
 21
42419.71860701206
 72
     1
 10
86072.69013612182
 20
42419.71860701207
 11
99587.9892175987
 21
42419.71860701207
 97
        0
 92
        1
 93
        6
 72
     1
 10
99587.9892175987
 20
106990.7139084901
 11
106513.3266407933
 21
109375.2988146446
 72
     2
 10
105781.2900249622
 20
111413.010849934
 40
2165.213140935683
 50
289.7605409069777
 51
356.2394590929184
 73
     1
 72
     1
 10
107941.8411889871
 20
111271.001648431
 11
107941.8411889873
 21
136146.3715334163
 72
     2
 10
106971.8497563286
 20
136110.2439563157
 40
970.663989884431
 50
2.133009904533575
 51
112.1330099047764
 73
     1
 72
     1
 10
106606.1443298939
 20
137009.3813887111
 11
99587.9892175987
 21
133736.7619137283
 72
     1
 10
99587.9892175987
 20
133736.7619137283
 11
99587.9892175987
 21
106990.7139084901
 97
        0
 92
        1
 93
        3
 72
     1
 10
51087.04573740561
 20
89526.02661651836
 11
64132.70340177392
 21
96757.35274203249
 72
     1
 10
64132.70340177394
 20
96757.35274203249
 11
64132.70340177408
 21
113061.0160419619
 72
     2
 10
86373.34223488702
 20
85349.67085119694
 40
35532.58600196028
 50
128.7499156981673
 51
173.2500843018337
 73
     1
 97
        0
 92
        1
 93
        7
 72
     2
 10
159498.6066256473
 20
47171.09768479351
 40
4751.379077781432
 50
269.9999999999983
 51
360.0000000000004
 73
     1
 72
     1
 10
164249.9857034287
 20
47171.09768479354
 11
164249.9857034286
 21
148929.7251247162
 72
     2
 10
153104.0551340759
 20
145652.2312742628
 40
11617.81968342559
 50
16.38612894579416
 51
85.61387105420656
 73
     1
 72
     1
 10
153992.558609905
 20
157236.0258067134
 11
135476.7284421168
 21
157236.025806713
 72
     2
 10
135476.7284421172
 20
132203.633223968
 40
25032.39258274507
 50
90.00000000000087
 51
104.0000000000446
 73
     1
 72
     1
 10
129420.8445770855
 20
156492.4567654637
 11
129420.8445770854
 21
42419.7186070116
 72
     1
 10
129420.8445770854
 20
42419.7186070116
 11
159498.6066256472
 21
42419.71860701208
 97
        0
 92
        1
 93
        6
 72
     1
 10
142697.1881292888
 20
55489.83103482368
 11
149159.4554178724
 21
55489.831034824
 72
     2
 10
149159.4554178724
 20
57304.01776817661
 40
1814.186733352632
 50
270.0000000000007
 51
360.000000000001
 73
     1
 72
     1
 10
150973.642151225
 20
57304.01776817664
 11
150973.642151225
 21
141389.8290366245
 72
     2
 10
148487.8771841638
 20
141389.8290366245
 40
2485.764967061216
 50
0.0000000000003499
 51
90.00000000000033
 73
     1
 72
     1
 10
148487.8771841638
 20
143875.5940036857
 11
142697.1881292891
 21
143875.5940036856
 72
     1
 10
142697.1881292891
 20
143875.5940036856
 11
142697.1881292888
 21
55489.83103482369
 97
        0
 92
        1
 93
       12
 72
     1
 10
172919.8140256379
 20
42419.7186070116
 11
196992.984425274
 21
42419.7186070116
 72
     1
 10
196992.984425274
 20
42419.7186070116
 11
196992.984425274
 21
54546.71171763528
 72
     1
 10
196992.984425274
 20
54546.71171763528
 11
186196.1575778416
 21
54546.71171763528
 72
     1
 10
186196.1575778416
 20
54546.71171763528
 11
186196.1575778406
 21
93476.59036180981
 72
     2
 10
161707.488942156
 20
-25181.90177575424
 40
121159.12119155
 50
281.6609520622133
 51
293.4724250161588
 73
     0
 72
     1
 10
209966.0956403323
 20
85951.52941153274
 11
209966.0956403329
 21
99223.70245050954
 72
     2
 10
169092.3307322618
 20
11417.28922520742
 40
96853.6569327807
 50
65.03808668413701
 51
79.82853623748811
 73
     1
 72
     1
 10
186196.1575778414
 20
106748.763400787
 11
186196.1575778407
 21
134522.6524809155
 72
     2
 10
149649.8952597929
 20
7420.910997906968
 40
132251.585916514
 50
286.0418218054057
 51
291.9581781945935
 73
     0
 72
     1
 10
199102.6932269282
 20
130078.5758650272
 11
199102.6932269291
 21
145460.8194053911
 72
     2
 10
152033.610092587
 20
51290.32160925423
 40
105278.5887171737
 50
63.44281790000926
 51
78.55718209999064
 73
     1
 72
     1
 10
172919.8140256382
 20
154476.3077098232
 11
172919.8140256379
 21
42419.7186070116
 97
        0
 92
        1
 93
       15
 72
     1
 10
200843.9943688388
 20
42419.7186070116
 11
214718.2128208543
 21
42419.7186070116
 72
     1
 10
214718.2128208543
 20
42419.7186070116
 11
225840.6682517806
 21
68725.18316101737
 72
     1
 10
225840.6682517806
 20
68725.18316101737
 11
232246.5421246085
 21
48633.89078637936
 72
     2
 10
215878.5940257774
 20
72169.27135408337
 40
28667.47047495972
 50
304.8171215495268
 51
337.1828784504726
 73
     1
 72
     2
 10
238905.8055971146
 20
62481.42481598525
 40
3685.339995417663
 50
337.1828784504702
 51
369.7138375590516
 73
     1
 72
     1
 10
242538.3079454534
 20
63103.24277257604
 11
234416.0142442291
 21
86692.09649134927
 72
     2
 10
240052.5154725337
 20
88337.50986077392
 40
5871.757083953601
 50
163.7263636887576
 51
201.7263636887611
 73
     0
 72
     1
 10
234597.8742693718
 20
90511.0830934322
 11
240977.2733653132
 21
106520.3588046445
 72
     2
 10
236381.088340801
 20
108071.7744474019
 40
4850.959418109156
 50
341.3481872592003
 51
383.0214723187967
 73
     1
 72
     2
 10
203805.420895314
 20
91153.86535333568
 40
41545.00353168846
 50
26.92877030208263
 51
46.67979184903328
 73
     1
 72
     1
 10
232308.408978194
 20
121379.136051796
 11
228002.309532135
 21
109548.225057822
 72
     1
 10
228002.309532135
 20
109548.225057822
 11
221642.4787337427
 21
132015.9486933683
 72
     2
 10
168731.8755011547
 20
67203.36186232325
 40
83667.21787037084
 50
50.7730691213507
 51
64.40933290079502
 73
     1
 72
     1
 10
204870.9968443084
 20
142663.0680286801
 11
219652.9064905008
 21
89079.28160512716
 72
     1
 10
219652.9064905008
 20
89079.28160512716
 11
200843.9943688388
 21
42419.7186070116
 97
        0
 92
        1
 93
       11
 72
     1
 10
60760.25147079707
 20
33473.4471139251
 11
225743.0881782895
 21
33473.44711392544
 72
     2
 10
195728.5048987643
 20
89689.63940362025
 40
63727.03888457004
 50
298.0983598942144
 51
325.3528772494833
 73
     1
 72
     2
 10
207631.5266048101
 20
81463.83807677157
 40
49258.25409788611
 50
325.3528772494843
 51
362.6471227505195
 73
     1
 72
     2
 10
186230.686382898
 20
80474.39359199833
 40
70681.95505248924
 50
2.647122750518907
 51
35.35287724949006
 73
     1
 72
     2
 10
169807.2708636503
 20
68823.19701422783
 40
90818.46316615475
 50
35.35287724949011
 51
57.50026675947552
 73
     1
 72
     2
 10
145773.4884706048
 20
31097.32782319365
 40
135549.4803950897
 50
57.50026675947544
 51
91.06601590221627
 73
     1
 72
     2
 10
140729.851178483
 20
31097.32782319106
 40
135549.4803950918
 50
88.93398409778516
 51
122.4997332405255
 73
     1
 72
     2
 10
116696.06878544
 20
68823.19701422378
 40
90818.46316615935
 50
122.4997332405263
 51
144.6471227505104
 73
     1
 72
     2
 10
100272.6532661892
 20
80474.39359199847
 40
70681.95505248945
 50
144.6471227505111
 51
177.3528772494822
 73
     1
 72
     2
 10
78871.81304427679
 20
81463.83807677159
 40
49258.25409788603
 50
177.3528772494818
 51
214.6471227505157
 73
     1
 72
     2
 10
90774.83475031492
 20
89689.63940361074
 40
63727.03888455833
 50
214.6471227505147
 51
241.9016401057878
 73
     1
 97
        0
 92
        1
 93
       11
 72
     2
 10
90774.83475032144
 20
89689.63940361852
 40
76114.49352209958
 50
115.6676497836031
 51
145.3528772494841
 73
     0
 72
     2
 10
78871.81304427716
 20
81463.83807677169
 40
61645.7087354179
 50
145.3528772494848
 51
182.6471227505183
 73
     0
 72
     2
 10
100272.6532661902
 20
80474.39359199792
 40
83069.40969002218
 50
182.6471227505189
 51
215.3528772494895
 73
     0
 72
     2
 10
116696.0687854374
 20
68823.19701422652
 40
103205.9178036874
 50
215.3528772494901
 51
237.500266759475
 73
     0
 72
     2
 10
140729.8511784818
 20
31097.32782319603
 40
147936.9350326188
 50
237.5002667594748
 51
270.9767443388683
 73
     0
 72
     2
 10
145773.488470605
 20
31097.32782319397
 40
147936.9350326207
 50
269.0232556611323
 51
302.4997332405255
 73
     0
 72
     2
 10
169807.2708636478
 20
68823.19701422454
 40
103205.9178036901
 50
302.4997332405259
 51
324.6471227505102
 73
     0
 72
     2
 10
186230.6863828967
 20
80474.39359199808
 40
83069.40969002223
 50
324.6471227505111
 51
357.3528772494815
 73
     0
 72
     2
 10
207631.5266048085
 20
81463.8380767721
 40
61645.70873541929
 50
357.3528772494821
 51
394.6471227505164
 73
     0
 72
     2
 10
195728.5048987675
 20
89689.63940361675
 40
76114.49352209723
 50
34.64712275051661
 51
64.33235021639949
 73
     0
 72
     1
 10
228697.516901105
 20
21085.99247639351
 11
57805.82274798077
 21
21085.99247639414
 97
        0
 75
     0
 76
     1
 98
        1
 10
0.0
 20
0.0
450
        0
451
        0
460
0.0
461
0.0
452
        0
462
0.0
453
        0
470

1001
REVIT
1002
{
1070
     1
1000
564640
1002
}
1002
{
1070
     5
1000
333213
1002
}
  0
ENDBLK
  5
2B5
330
253
100
AcDbEntity
  8
0
100
AcDbBlockEnd
  0
BLOCK
  5
2DF
330
2B6
100
AcDbEntity
  8
0
100
AcDbBlockBegin
  2
_ARDEX_ Landscape Title block - _ARDEX_ Landscape Title block-333213-WARM ROOF SYSTEM - PLYWOOD
 70
     0
 10
0.0
 20
0.0
 30
0.0
  3
_ARDEX_ Landscape Title block - _ARDEX_ Landscape Title block-333213-WARM ROOF SYSTEM - PLYWOOD
  1

  0
LINE
  5
2B7
330
2B6
100
AcDbEntity
  8
_ARDEX - WELDTEC_
100
AcDbLine
 10
5.3206767357453
 20
0.1047184170705877
 30
0.0
 11
5.3206767357453
 21
20.1047184170714
 31
0.0
1001
REVIT
1002
{
1070
     1
1000
564640
1002
}
1002
{
1070
     5
1000
333213
1002
}
  0
LINE
  5
2B8
330
2B6
100
AcDbEntity
  8
_ARDEX - WELDTEC_
100
AcDbLine
 10
218.5398289799351
 20
10.10471841707111
 30
0.0
 11
255.7980057156809
 21
10.10471841707111
 31
0.0
1001
REVIT
1002
{
1070
     1
1000
564640
1002
}
1002
{
1070
     5
1000
333213
1002
}
  0
LINE
  5
2B9
330
2B6
100
AcDbEntity
  8
_ARDEX - WELDTEC_
100
AcDbLine
 10
285.3206767356986
 20
0.104718417071116
 30
0.0
 11
285.3206767356986
 21
20.10471841707112
 31
0.0
1001
REVIT
1002
{
1070
     1
1000
564640
1002
}
1002
{
1070
     5
1000
333213
1002
}
  0
LINE
  5
2BA
330
2B6
100
AcDbEntity
  8
_ARDEX - WELDTEC_
100
AcDbLine
 10
93.03982897993519
 20
0.1047184170707532
 30
0.0
 11
93.03982897993519
 21
20.10471841707112
 31
0.0
1001
REVIT
1002
{
1070
     1
1000
564640
1002
}
1002
{
1070
     5
1000
333213
1002
}
  0
LINE
  5
2BB
330
2B6
100
AcDbEntity
  8
_ARDEX - WELDTEC_
100
AcDbLine
 10
285.3206767356986
 20
0.1047184170711139
 30
0.0
 11
5.320676735745351
 21
0.1047184170711139
 31
0.0
1001
REVIT
1002
{
1070
     1
1000
564640
1002
}
1002
{
1070
     5
1000
333213
1002
}
  0
LINE
  5
2BC
330
2B6
100
AcDbEntity
  8
_ARDEX - WELDTEC_
100
AcDbLine
 10
5.3206767357453
 20
20.10471841707112
 30
0.0
 11
285.3206767356986
 21
20.10471841707112
 31
0.0
1001
REVIT
1002
{
1070
     1
1000
564640
1002
}
1002
{
1070
     5
1000
333213
1002
}
  0
LINE
  5
2BD
330
2B6
100
AcDbEntity
  8
_ARDEX - WELDTEC_
100
AcDbLine
 10
218.5398289799351
 20
20.10471841707112
 30
0.0
 11
218.5398289799351
 21
0.1047184170711139
 31
0.0
1001
REVIT
1002
{
1070
     1
1000
564640
1002
}
1002
{
1070
     5
1000
333213
1002
}
  0
LINE
  5
2BE
330
2B6
100
AcDbEntity
  8
_ARDEX - WELDTEC_
100
AcDbLine
 10
255.7980057156809
 20
0.1047184170711139
 30
0.0
 11
255.7980057156809
 21
20.10471841707112
 31
0.0
1001
REVIT
1002
{
1070
     1
1000
564640
1002
}
1002
{
1070
     5
1000
333213
1002
}
  0
ARC
  5
2BF
330
2B6
100
AcDbEntity
  8
_ARDEX - WELDTEC_
100
AcDbCircle
 10
264.796839942536
 20
8.615450092703692
 30
0.0
 40
3.599904939316393
100
AcDbArc
 50
128.7499156981656
 51
173.2500843018355
1001
REVIT
1002
{
1070
     1
1000
564640
1002
}
1002
{
1070
     5
1000
333213
1002
}
  0
LINE
  5
2C0
330
2B6
100
AcDbEntity
  8
_ARDEX - WELDTEC_
100
AcDbLine
 10
261.2218872767082
 20
9.038568290379725
 30
0.0
 11
262.5435790742037
 21
9.771194016962342
 31
0.0
1001
REVIT
1002
{
1070
     1
1000
564640
1002
}
1002
{
1070
     5
1000
333213
1002
}
  0
LINE
  5
2C1
330
2B6
100
AcDbEntity
  8
_ARDEX - WELDTEC_
100
AcDbLine
 10
262.5435790742037
 20
9.771194016962342
 30
0.0
 11
262.5435790742037
 21
11.42296341081213
 31
0.0
1001
REVIT
1002
{
1070
     1
1000
564640
1002
}
1002
{
1070
     5
1000
333213
1002
}
  0
LINE
  5
2C2
330
2B6
100
AcDbEntity
  8
_ARDEX - WELDTEC_
100
AcDbLine
 10
266.135652517049
 20
10.80796424829059
 30
0.0
 11
266.9820044536196
 21
11.09938659061303
 31
0.0
1001
REVIT
1002
{
1070
     1
1000
564640
1002
}
1002
{
1070
     5
1000
333213
1002
}
  0
LINE
  5
2C3
330
2B6
100
AcDbEntity
  8
_ARDEX - WELDTEC_
100
AcDbLine
 10
266.9820044536196
 20
11.09938659061303
 30
0.0
 11
266.9820044536196
 21
13.91234101803237
 31
0.0
1001
REVIT
1002
{
1070
     1
1000
564640
1002
}
1002
{
1070
     5
1000
333213
1002
}
  0
LINE
  5
2C4
330
2B6
100
AcDbEntity
  8
_ARDEX - WELDTEC_
100
AcDbLine
 10
266.9820044536196
 20
13.91234101803237
 30
0.0
 11
266.135652517049
 21
13.5176806285152
 31
0.0
1001
REVIT
1002
{
1070
     1
1000
564640
1002
}
1002
{
1070
     5
1000
333213
1002
}
  0
LINE
  5
2C5
330
2B6
100
AcDbEntity
  8
_ARDEX - WELDTEC_
100
AcDbLine
 10
266.135652517049
 20
13.5176806285152
 30
0.0
 11
266.135652517049
 21
10.80796424829059
 31
0.0
1001
REVIT
1002
{
1070
     1
1000
564640
1002
}
1002
{
1070
     5
1000
333213
1002
}
  0
LINE
  5
2C6
330
2B6
100
AcDbEntity
  8
_ARDEX - WELDTEC_
100
AcDbLine
 10
270.5031651456994
 20
5.590266819067713
 30
0.0
 11
271.3408089774199
 21
5.590266819067713
 31
0.0
1001
REVIT
1002
{
1070
     1
1000
564640
1002
}
1002
{
1070
     5
1000
333213
1002
}
  0
LINE
  5
2C7
330
2B6
100
AcDbEntity
  8
_ARDEX - WELDTEC_
100
AcDbLine
 10
271.3408089774199
 20
5.590266819067713
 30
0.0
 11
271.3408089774199
 21
14.54487385665581
 31
0.0
1001
REVIT
1002
{
1070
     1
1000
564640
1002
}
1002
{
1070
     5
1000
333213
1002
}
  0
LINE
  5
2C8
330
2B6
100
AcDbEntity
  8
_ARDEX - WELDTEC_
100
AcDbLine
 10
271.3408089774199
 20
14.54487385665581
 30
0.0
 11
270.5031651456994
 21
14.54487385665581
 31
0.0
1001
REVIT
1002
{
1070
     1
1000
564640
1002
}
1002
{
1070
     5
1000
333213
1002
}
  0
LINE
  5
2C9
330
2B6
100
AcDbEntity
  8
_ARDEX - WELDTEC_
100
AcDbLine
 10
270.5031651456994
 20
14.54487385665581
 30
0.0
 11
270.5031651456994
 21
5.590266819067713
 31
0.0
1001
REVIT
1002
{
1070
     1
1000
564640
1002
}
1002
{
1070
     5
1000
333213
1002
}
  0
MTEXT
  5
2CB
330
2B6
100
AcDbEntity
  8
_ARDEX - WELDTEC_
100
AcDbMText
 10
95.1576274176504
 20
8.67341586252181
 30
0.0
 40
1.5
 41
13.275945
 46
0.0
 71
     1
 72
     1
  1
SHEET TITLE
  7
Swis721 Lt BT_1
 73
     2
 44
1.0
1001
REVIT
1002
{
1070
     1
1000
564640
1002
}
1002
{
1070
     5
1000
333213
1002
}
  0
MTEXT
  5
2CC
330
2B6
100
AcDbEntity
  8
_ARDEX - WELDTEC_
100
AcDbMText
 10
220.3053465833535
 20
13.82166287222621
 30
0.0
 40
1.5
 41
9.95695875
 46
0.0
 71
     1
 72
     1
  1
DWG NO.
  7
Swis721 Lt BT_1
 73
     2
 44
1.0
1001
REVIT
1002
{
1070
     1
1000
564640
1002
}
1002
{
1070
     5
1000
333213
1002
}
  0
MTEXT
  5
2CD
330
2B6
100
AcDbEntity
  8
_ARDEX - WELDTEC_
100
AcDbMText
 10
220.3053465833535
 20
3.82166287222594
 30
0.0
 40
1.5
 41
6.998731874999998
 46
0.0
 71
     1
 72
     1
  1
SCALE
  7
Swis721 Lt BT_1
 73
     2
 44
1.0
1001
REVIT
1002
{
1070
     1
1000
564640
1002
}
1002
{
1070
     5
1000
333213
1002
}
  0
MTEXT
  5
2CF
330
2B6
100
AcDbEntity
  8
_ARDEX - WELDTEC_
100
AcDbMText
 10
239.0752451580743
 20
4.127661816395773
 30
0.0
 40
2.1
 41
8.730376874999999
 46
0.0
 71
     1
 72
     1
  1
@  A4
  7
Swis721 Lt BT_2
 73
     2
 44
1.0
1001
REVIT
1002
{
1070
     1
1000
564640
1002
}
1002
{
1070
     5
1000
333213
1002
}
  0
MTEXT
  5
2D0
330
2B6
100
AcDbEntity
  8
_ARDEX - WELDTEC_
100
AcDbMText
 10
220.3053465833535
 20
7.734351438880705
 30
0.0
 40
1.5
 41
5.62784625
 46
0.0
 71
     1
 72
     1
  1
DATE
  7
Swis721 Lt BT_1
 73
     2
 44
1.0
1001
REVIT
1002
{
1070
     1
1000
564640
1002
}
1002
{
1070
     5
1000
333213
1002
}
  0
MTEXT
  5
2D2
330
2B6
100
AcDbEntity
  8
_ARDEX - WELDTEC_
100
AcDbMText
 10
6.949872989435805
 20
8.938253401590928
 30
0.0
 40
0.7000000000000001
 41
6.6379725
 46
0.0
 71
     1
 72
     1
  1
Disclaimer: 
  7
Swis721 Lt BT_B
 73
     2
 44
1.0
1001
REVIT
1002
{
1070
     1
1000
564640
1002
}
1002
{
1070
     5
1000
333213
1002
}
  0
MTEXT
  5
2D4
330
2B6
100
AcDbEntity
  8
_ARDEX - WELDTEC_
100
AcDbMText
 10
12.4267479894358
 20
8.938253401590928
 30
0.0
 40
0.7000000000000001
 41
17.821513125
 46
0.0
 71
     1
 72
     1
  1
Ardex makes every reasonable effort
  7
Swis721 Lt BT_3
 73
     2
 44
1.0
1001
REVIT
1002
{
1070
     1
1000
564640
1002
}
1002
{
1070
     5
1000
333213
1002
}
  0
MTEXT
  5
2D5
330
2B6
100
AcDbEntity
  8
_ARDEX - WELDTEC_
100
AcDbMText
 10
27.13096673943581
 20
8.938253401590928
 30
0.0
 40
0.7000000000000001
 41
0.3607593750000011
 46
0.0
 71
     1
 72
     1
  1
\fSwis721 Lt BT|b1|i0|c0|p34|;\W.9; 
  7
Swis721 Lt BT_B
 73
     2
 44
1.0
1001
REVIT
1002
{
1070
     1
1000
564640
1002
}
1002
{
1070
     5
1000
333213
1002
}
  0
MTEXT
  5
2D6
330
2B6
100
AcDbEntity
  8
_ARDEX - WELDTEC_
100
AcDbMText
 10
27.42862298943581
 20
8.938253401590928
 30
0.0
 40
0.7000000000000001
 41
13.27594499999999
 46
0.0
 71
     1
 72
     1
  1
to ensure that the technical
  7
Swis721 Lt BT_3
 73
     2
 44
1.0
1001
REVIT
1002
{
1070
     1
1000
564640
1002
}
1002
{
1070
     5
1000
333213
1002
}
  0
MTEXT
  5
2D7
330
2B6
100
AcDbEntity
  8
_ARDEX - WELDTEC_
100
AcDbMText
 10
38.3823729894358
 20
8.938253401590928
 30
0.0
 40
0.7000000000000001
 41
0.3607593750000057
 46
0.0
 71
     1
 72
     1
  1
\fSwis721 Lt BT|b1|i0|c0|p34|;\W.9; 
  7
Swis721 Lt BT_B
 73
     2
 44
1.0
1001
REVIT
1002
{
1070
     1
1000
564640
1002
}
1002
{
1070
     5
1000
333213
1002
}
  0
MTEXT
  5
2D8
330
2B6
100
AcDbEntity
  8
_ARDEX - WELDTEC_
100
AcDbMText
 10
38.6800292394358
 20
8.938253401590928
 30
0.0
 40
0.7000000000000001
 41
59.95820812499999
 46
0.0
 71
     1
 72
     1
  1
details, recommendations and other information contained in this drawing are accurate and represent our knowledge and 
  7
Swis721 Lt BT_3
 73
     2
 44
1.0
1001
REVIT
1002
{
1070
     1
1000
564640
1002
}
1002
{
1070
     5
1000
333213
1002
}
  0
MTEXT
  5
2D9
330
2B6
100
AcDbEntity
  8
_ARDEX - WELDTEC_
100
AcDbMText
 10
6.949872989435805
 20
7.681482568257595
 30
0.0
 40
0.7000000000000001
 41
98.920220625
 46
0.0
 71
     1
 72
     1
  1
experience at the time of design and publication. Ardex reserves the right to change the information without prior notice.  Ardex provides the information in good faith with no representations or warranties 
  7
Swis721 Lt BT_3
 73
     2
 44
1.0
1001
REVIT
1002
{
1070
     1
1000
564640
1002
}
1002
{
1070
     5
1000
333213
1002
}
  0
MTEXT
  5
2DA
330
2B6
100
AcDbEntity
  8
_ARDEX - WELDTEC_
100
AcDbMText
 10
6.949872989435805
 20
6.424711734924262
 30
0.0
 40
0.7000000000000001
 41
100.1468025
 46
0.0
 71
     1
 72
     1
  1
(whether implied or otherwise), and will not be liable for any losses or damages (whether direct, indirect or consequential) whatsoever, whether in contract, negligence  or any other action, arising out of or in 
  7
Swis721 Lt BT_3
 73
     2
 44
1.0
1001
REVIT
1002
{
1070
     1
1000
564640
1002
}
1002
{
1070
     5
1000
333213
1002
}
  0
MTEXT
  5
2DB
330
2B6
100
AcDbEntity
  8
_ARDEX - WELDTEC_
100
AcDbMText
 10
6.949872989435805
 20
5.167940901590927
 30
0.0
 40
0.7000000000000001
 41
29.221509375
 46
0.0
 71
     1
 72
     1
  1
connection with the use, or inability to use, the information.  
  7
Swis721 Lt BT_3
 73
     2
 44
1.0
1001
REVIT
1002
{
1070
     1
1000
564640
1002
}
1002
{
1070
     5
1000
333213
1002
}
  0
MTEXT
  5
2DC
330
2B6
100
AcDbEntity
  8
_ARDEX - WELDTEC_
100
AcDbMText
 10
6.949872989435805
 20
3.911170068257595
 30
0.0
 40
0.7000000000000001
 41
100.1468025
 46
0.0
 71
     1
 72
     1
  1
It is your responsibility to ensure that our products are used only for the purposes for which they are intended and are used in accordance with any applicable specifications, guidelines, standards, codes of 
  7
Swis721 Lt BT_3
 73
     2
 44
1.0
1001
REVIT
1002
{
1070
     1
1000
564640
1002
}
1002
{
1070
     5
1000
333213
1002
}
  0
MTEXT
  5
2DD
330
2B6
100
AcDbEntity
  8
_ARDEX - WELDTEC_
100
AcDbMText
 10
6.949872989435805
 20
2.654399234924261
 30
0.0
 40
0.7000000000000001
 41
79.94427750000001
 46
0.0
 71
     1
 72
     1
  1
practice, regulations and laws. The supply of our products and services are also subject to certain terms, warranties and exclusions which are available on request.
  7
Swis721 Lt BT_3
 73
     2
 44
1.0
1001
REVIT
1002
{
1070
     1
1000
564640
1002
}
1002
{
1070
     5
1000
333213
1002
}
  0
INSERT
  5
2DE
330
2B6
100
AcDbEntity
  8
0
100
AcDbBlockReference
  2
_ARDEX_ Landscape Title block - ARDEX Logo_dwg-603482-WARM ROOF SYSTEM - PLYWOOD
 10
256.0461168367232
 20
-0.0315620231414024
 30
0.0
 41
0.0001013127763658
 42
0.0001013127763658
 43
0.0001013127763658
  0
ENDBLK
  5
2E0
330
2B6
100
AcDbEntity
  8
0
100
AcDbBlockEnd
  0
ENDSEC
  0
SECTION
  2
ENTITIES
  0
INSERT
  5
C3
330
70
100
AcDbEntity
  8
_ARDEX - WELDTEC_
100
AcDbBlockReference
  2
_ARDEX_ Lines - Barrier-595672-AB-30 WARM ROOF SYSTEM - PLYWOOD
 10
3875.772361728428
 20
2403.457797711197
 30
0.0
 50
180.0
1001
REVIT
1002
{
1070
     1
1000
564204
1002
}
1002
{
1070
     5
1000
569184
1002
}
1002
{
1070
     2
1000
-2002000
1002
}
  0
INSERT
  5
D2
330
70
100
AcDbEntity
  8
_ARDEX - WELDTEC_
100
AcDbBlockReference
  2
_ARDEX_ Lining - Various - Polyiso Board 40MM-595631-AB-30 WARM ROOF SYSTEM - PLYWOOD
 10
3421.884094877892
 20
2404.957797711201
 30
0.0
1001
REVIT
1002
{
1070
     1
1000
564205
1002
}
1002
{
1070
     5
1000
595603
1002
}
1002
{
1070
     2
1000
-2002000
1002
}
  0
INSERT
  5
D7
330
70
100
AcDbEntity
  8
_ARDEX - WELDTEC_
100
AcDbBlockReference
  2
_ARDEX_ Lines - Membrane-595663-AB-30 WARM ROOF SYSTEM - PLYWOOD
 10
3421.884094877892
 20
2462.557797711206
 30
0.0
1001
REVIT
1002
{
1070
     1
1000
564206
1002
}
1002
{
1070
     5
1000
569180
1002
}
1002
{
1070
     2
1000
-2002000
1002
}
  0
INSERT
  5
E7
330
70
100
AcDbEntity
  8
_ARDEX - WELDTEC_
100
AcDbBlockReference
  2
_ARDEX_ Lining - Various - Polyiso HD Cover Board-563354-AB-30 WARM ROOF SYSTEM - PLYWOOD
 10
3421.884094877892
 20
2444.557797711203
 30
0.0
1001
REVIT
1002
{
1070
     1
1000
564207
1002
}
1002
{
1070
     5
1000
563342
1002
}
1002
{
1070
     2
1000
-2002000
1002
}
  0
INSERT
  5
104
330
70
100
AcDbEntity
  8
_ARDEX - WELDTEC_
100
AcDbBlockReference
  2
_ARDEX_ Lining - Various - Adhesive-563866-AB-30 WARM ROOF SYSTEM - PLYWOOD
 10
3875.772361728428
 20
2458.757797711207
 30
0.0
 50
180.0
1001
REVIT
1002
{
1070
     1
1000
564208
1002
}
1002
{
1070
     5
1000
537081
1002
}
1002
{
1070
     2
1000
-2002000
1002
}
  0
INSERT
  5
10F
330
70
100
AcDbEntity
  8
_ARDEX - WELDTEC_
 62
     8
420
  8421504
100
AcDbBlockReference
  2
_ARDEX_ Plywood - 18mm-564453-AB-30 WARM ROOF SYSTEM - PLYWOOD
 10
3421.884094877892
 20
2383.957797711198
 30
0.0
1001
REVIT
1002
{
1070
     1
1000
564246
1002
}
1002
{
1070
     5
1000
502649
1002
}
1002
{
1070
     2
1000
-2002000
1002
}
  0
INSERT
  5
117
330
70
100
AcDbEntity
  8
_ARDEX - WELDTEC_
100
AcDbBlockReference
  2
_ARDEX_ Lining - Various - Plate-577194-AB-30 WARM ROOF SYSTEM - PLYWOOD
 10
3453.736473847033
 20
2458.557797711204
 30
0.0
1001
REVIT
1002
{
1070
     1
1000
614064
1002
}
1002
{
1070
     5
1000
577125
1002
}
1002
{
1070
     2
1000
-2002000
1002
}
  0
INSERT
  5
118
330
70
100
AcDbEntity
  8
_ARDEX - WELDTEC_
100
AcDbBlockReference
  2
_ARDEX_ Lining - Various - Plate-577194-AB-30 WARM ROOF SYSTEM - PLYWOOD
 10
3633.736473847033
 20
2458.557797711204
 30
0.0
1001
REVIT
1002
{
1070
     1
1000
614134
1002
}
1002
{
1070
     5
1000
577125
1002
}
1002
{
1070
     2
1000
-2002000
1002
}
  0
INSERT
  5
119
330
70
100
AcDbEntity
  8
_ARDEX - WELDTEC_
100
AcDbBlockReference
  2
_ARDEX_ Lining - Various - Plate-577194-AB-30 WARM ROOF SYSTEM - PLYWOOD
 10
3833.736473847034
 20
2458.557797711203
 30
0.0
1001
REVIT
1002
{
1070
     1
1000
614145
1002
}
1002
{
1070
     5
1000
577125
1002
}
1002
{
1070
     2
1000
-2002000
1002
}
  0
INSERT
  5
227
330
70
100
AcDbEntity
  8
_ARDEX - WELDTEC_
100
AcDbBlockReference
  2
_ARDEX_ Fixing Screw CS - _ARDEX_ Fixing Screw CS twin-617847-AB-30 WARM ROOF SYSTEM - PLYWOOD
 10
3466.236473847033
 20
2457.265991149901
 30
0.0
 50
180.0
1001
REVIT
1002
{
1070
     1
1000
618320
1002
}
1002
{
1070
     5
1000
598122
1002
}
1002
{
1070
     2
1000
-2002000
1002
}
  0
INSERT
  5
228
330
70
100
AcDbEntity
  8
_ARDEX - WELDTEC_
100
AcDbBlockReference
  2
_ARDEX_ Fixing Screw CS - _ARDEX_ Fixing Screw CS twin-617847-AB-30 WARM ROOF SYSTEM - PLYWOOD
 10
3846.236473847034
 20
2457.265991149899
 30
0.0
 50
180.0
1001
REVIT
1002
{
1070
     1
1000
618331
1002
}
1002
{
1070
     5
1000
598122
1002
}
1002
{
1070
     2
1000
-2002000
1002
}
  0
INSERT
  5
229
330
70
100
AcDbEntity
  8
_ARDEX - WELDTEC_
100
AcDbBlockReference
  2
_ARDEX_ Fixing Screw CS - _ARDEX_ Fixing Screw CS twin-617847-AB-30 WARM ROOF SYSTEM - PLYWOOD
 10
3646.236473847034
 20
2457.265991149899
 30
0.0
 50
180.0
1001
REVIT
1002
{
1070
     1
1000
596478
1002
}
1002
{
1070
     5
1000
598122
1002
}
1002
{
1070
     2
1000
-2002000
1002
}
  0
CIRCLE
  5
22A
330
70
100
AcDbEntity
  8
_ARDEX - WELDTEC_
100
AcDbCircle
 10
3717.196919732698
 20
2463.030875753754
 30
0.0
 40
1.5
1001
REVIT
1002
{
1070
     1
1000
564209
1002
}
1002
{
1070
     5
1000
372253
1002
}
1002
{
1070
     2
1000
-2005022
1002
}
  0
HATCH
  5
22B
330
70
100
AcDbEntity
  8
_ARDEX - WELDTEC_
100
AcDbHatch
 10
0.0
 20
0.0
 30
0.0
210
0.0
220
0.0
230
1.0
  2
SOLID
 70
     1
 71
     0
 91
        1
 92
        1
 93
        1
 72
     2
 10
3717.196919732698
 20
2463.030875753754
 40
1.5
 50
0.0
 51
360.0
 73
     1
 97
        0
 75
     0
 76
     1
 98
        1
 10
0.0
 20
0.0
450
        0
451
        0
460
0.0
461
0.0
452
        0
462
0.0
453
        0
470

1001
REVIT
1002
{
1070
     1
1000
564209
1002
}
1002
{
1070
     5
1000
372253
1002
}
1002
{
1070
     2
1000
-2005022
1002
}
  0
LINE
  5
22C
330
70
100
AcDbEntity
  8
_ARDEX - WELDTEC_
100
AcDbLine
 10
3717.196919732698
 20
2562.173113539529
 30
0.0
 11
3809.796736773173
 21
2562.173113539529
 31
0.0
1001
REVIT
1002
{
1070
     1
1000
564209
1002
}
1002
{
1070
     5
1000
372253
1002
}
1002
{
1070
     2
1000
-2005022
1002
}
  0
LINE
  5
22D
330
70
100
AcDbEntity
  8
_ARDEX - WELDTEC_
100
AcDbLine
 10
3717.196919732698
 20
2463.030875753754
 30
0.0
 11
3717.196919732698
 21
2562.173113539529
 31
0.0
1001
REVIT
1002
{
1070
     1
1000
564209
1002
}
1002
{
1070
     5
1000
372253
1002
}
1002
{
1070
     2
1000
-2005022
1002
}
  0
MTEXT
  5
22F
330
70
100
AcDbEntity
  8
_ARDEX - WELDTEC_
100
AcDbMText
 10
3813.840295842385
 20
2564.129155206196
 30
0.0
 40
4.0
 41
60.92825
 46
0.0
 71
     1
 72
     1
  1
ARDEX MEMBRANE
  7
Swis721 Lt BT
 73
     2
 44
1.0
1001
REVIT
1002
{
1070
     1
1000
564209
1002
}
1002
{
1070
     5
1000
372253
1002
}
1002
{
1070
     2
1000
-2005022
1002
}
  0
CIRCLE
  5
230
330
70
100
AcDbEntity
  8
_ARDEX - WELDTEC_
100
AcDbCircle
 10
3736.189633977165
 20
2455.342962345578
 30
0.0
 40
1.5
1001
REVIT
1002
{
1070
     1
1000
564210
1002
}
1002
{
1070
     5
1000
372253
1002
}
1002
{
1070
     2
1000
-2005022
1002
}
  0
HATCH
  5
231
330
70
100
AcDbEntity
  8
_ARDEX - WELDTEC_
100
AcDbHatch
 10
0.0
 20
0.0
 30
0.0
210
0.0
220
0.0
230
1.0
  2
SOLID
 70
     1
 71
     0
 91
        1
 92
        1
 93
        1
 72
     2
 10
3736.189633977165
 20
2455.342962345578
 40
1.5
 50
0.0
 51
360.0
 73
     1
 97
        0
 75
     0
 76
     1
 98
        1
 10
0.0
 20
0.0
450
        0
451
        0
460
0.0
461
0.0
452
        0
462
0.0
453
        0
470

1001
REVIT
1002
{
1070
     1
1000
564210
1002
}
1002
{
1070
     5
1000
372253
1002
}
1002
{
1070
     2
1000
-2005022
1002
}
  0
LINE
  5
232
330
70
100
AcDbEntity
  8
_ARDEX - WELDTEC_
100
AcDbLine
 10
3736.189633977165
 20
2540.100035711816
 30
0.0
 11
3809.796736773173
 21
2540.100035711816
 31
0.0
1001
REVIT
1002
{
1070
     1
1000
564210
1002
}
1002
{
1070
     5
1000
372253
1002
}
1002
{
1070
     2
1000
-2005022
1002
}
  0
LINE
  5
233
330
70
100
AcDbEntity
  8
_ARDEX - WELDTEC_
100
AcDbLine
 10
3736.189633977165
 20
2455.342962345578
 30
0.0
 11
3736.189633977165
 21
2540.100035711816
 31
0.0
1001
REVIT
1002
{
1070
     1
1000
564210
1002
}
1002
{
1070
     5
1000
372253
1002
}
1002
{
1070
     2
1000
-2005022
1002
}
  0
MTEXT
  5
234
330
70
100
AcDbEntity
  8
_ARDEX - WELDTEC_
100
AcDbMText
 10
3813.840295842385
 20
2545.426077378483
 30
0.0
 40
4.0
 41
91.71305
 46
0.0
 71
     1
 72
     1
  1
OPTIONAL ARDEX HD COVER
  7
Swis721 Lt BT
 73
     2
 44
1.0
1001
REVIT
1002
{
1070
     1
1000
564210
1002
}
1002
{
1070
     5
1000
372253
1002
}
1002
{
1070
     2
1000
-2005022
1002
}
  0
MTEXT
  5
235
330
70
100
AcDbEntity
  8
_ARDEX - WELDTEC_
100
AcDbMText
 10
3813.840295842385
 20
2538.679202378484
 30
0.0
 40
4.0
 41
23.2489375
 46
0.0
 71
     1
 72
     1
  1
BOARD
  7
Swis721 Lt BT
 73
     2
 44
1.0
1001
REVIT
1002
{
1070
     1
1000
564210
1002
}
1002
{
1070
     5
1000
372253
1002
}
1002
{
1070
     2
1000
-2005022
1002
}
  0
CIRCLE
  5
236
330
70
100
AcDbEntity
  8
_ARDEX - WELDTEC_
100
AcDbCircle
 10
3756.990889821953
 20
2439.371804328863
 30
0.0
 40
1.500000000000454
1001
REVIT
1002
{
1070
     1
1000
564211
1002
}
1002
{
1070
     5
1000
372253
1002
}
1002
{
1070
     2
1000
-2005022
1002
}
  0
HATCH
  5
237
330
70
100
AcDbEntity
  8
_ARDEX - WELDTEC_
100
AcDbHatch
 10
0.0
 20
0.0
 30
0.0
210
0.0
220
0.0
230
1.0
  2
SOLID
 70
     1
 71
     0
 91
        1
 92
        1
 93
        1
 72
     2
 10
3756.990889821953
 20
2439.371804328863
 40
1.500000000000454
 50
0.0
 51
360.0
 73
     1
 97
        0
 75
     0
 76
     1
 98
        1
 10
0.0
 20
0.0
450
        0
451
        0
460
0.0
461
0.0
452
        0
462
0.0
453
        0
470

1001
REVIT
1002
{
1070
     1
1000
564211
1002
}
1002
{
1070
     5
1000
372253
1002
}
1002
{
1070
     2
1000
-2005022
1002
}
  0
LINE
  5
238
330
70
100
AcDbEntity
  8
_ARDEX - WELDTEC_
100
AcDbLine
 10
3756.990889821953
 20
2519.180898372787
 30
0.0
 11
3809.796736773173
 21
2519.180898372787
 31
0.0
1001
REVIT
1002
{
1070
     1
1000
564211
1002
}
1002
{
1070
     5
1000
372253
1002
}
1002
{
1070
     2
1000
-2005022
1002
}
  0
LINE
  5
239
330
70
100
AcDbEntity
  8
_ARDEX - WELDTEC_
100
AcDbLine
 10
3756.990889821953
 20
2439.371804328863
 30
0.0
 11
3756.990889821953
 21
2519.180898372787
 31
0.0
1001
REVIT
1002
{
1070
     1
1000
564211
1002
}
1002
{
1070
     5
1000
372253
1002
}
1002
{
1070
     2
1000
-2005022
1002
}
  0
MTEXT
  5
23A
330
70
100
AcDbEntity
  8
_ARDEX - WELDTEC_
100
AcDbMText
 10
3813.840295842385
 20
2521.136940039454
 30
0.0
 40
4.0
 41
76.32065
 46
0.0
 71
     1
 72
     1
  1
ARDEX POLYISO BOARD
  7
Swis721 Lt BT
 73
     2
 44
1.0
1001
REVIT
1002
{
1070
     1
1000
564211
1002
}
1002
{
1070
     5
1000
372253
1002
}
1002
{
1070
     2
1000
-2005022
1002
}
  0
CIRCLE
  5
23B
330
70
100
AcDbEntity
  8
_ARDEX - WELDTEC_
100
AcDbCircle
 10
3774.660099535815
 20
2403.291179303106
 30
0.0
 40
1.5
1001
REVIT
1002
{
1070
     1
1000
564212
1002
}
1002
{
1070
     5
1000
372253
1002
}
1002
{
1070
     2
1000
-2005022
1002
}
  0
HATCH
  5
23C
330
70
100
AcDbEntity
  8
_ARDEX - WELDTEC_
100
AcDbHatch
 10
0.0
 20
0.0
 30
0.0
210
0.0
220
0.0
230
1.0
  2
SOLID
 70
     1
 71
     0
 91
        1
 92
        1
 93
        1
 72
     2
 10
3774.660099535815
 20
2403.291179303106
 40
1.5
 50
0.0
 51
360.0
 73
     1
 97
        0
 75
     0
 76
     1
 98
        1
 10
0.0
 20
0.0
450
        0
451
        0
460
0.0
461
0.0
452
        0
462
0.0
453
        0
470

1001
REVIT
1002
{
1070
     1
1000
564212
1002
}
1002
{
1070
     5
1000
372253
1002
}
1002
{
1070
     2
1000
-2005022
1002
}
  0
LINE
  5
23D
330
70
100
AcDbEntity
  8
_ARDEX - WELDTEC_
100
AcDbLine
 10
3774.660099535815
 20
2504.555388866219
 30
0.0
 11
3809.796736773173
 21
2504.555388866219
 31
0.0
1001
REVIT
1002
{
1070
     1
1000
564212
1002
}
1002
{
1070
     5
1000
372253
1002
}
1002
{
1070
     2
1000
-2005022
1002
}
  0
LINE
  5
23E
330
70
100
AcDbEntity
  8
_ARDEX - WELDTEC_
100
AcDbLine
 10
3774.660099535815
 20
2403.291179303106
 30
0.0
 11
3774.660099535815
 21
2504.555388866219
 31
0.0
1001
REVIT
1002
{
1070
     1
1000
564212
1002
}
1002
{
1070
     5
1000
372253
1002
}
1002
{
1070
     2
1000
-2005022
1002
}
  0
MTEXT
  5
23F
330
70
100
AcDbEntity
  8
_ARDEX - WELDTEC_
100
AcDbMText
 10
3813.840295842385
 20
2506.511430532886
 30
0.0
 40
4.0
 41
79.84807499999999
 46
0.0
 71
     1
 72
     1
  1
ARDEX VAPOUR BARRIER
  7
Swis721 Lt BT
 73
     2
 44
1.0
1001
REVIT
1002
{
1070
     1
1000
564212
1002
}
1002
{
1070
     5
1000
372253
1002
}
1002
{
1070
     2
1000
-2005022
1002
}
  0
CIRCLE
  5
240
330
70
100
AcDbEntity
  8
_ARDEX - WELDTEC_
100
AcDbCircle
 10
3792.605581749518
 20
2399.02583791548
 30
0.0
 40
1.5
1001
REVIT
1002
{
1070
     1
1000
564447
1002
}
1002
{
1070
     5
1000
372261
1002
}
1002
{
1070
     2
1000
-2005022
1002
}
  0
HATCH
  5
241
330
70
100
AcDbEntity
  8
_ARDEX - WELDTEC_
100
AcDbHatch
 10
0.0
 20
0.0
 30
0.0
210
0.0
220
0.0
230
1.0
  2
SOLID
 70
     1
 71
     0
 91
        1
 92
        1
 93
        1
 72
     2
 10
3792.605581749518
 20
2399.02583791548
 40
1.5
 50
0.0
 51
360.0
 73
     1
 97
        0
 75
     0
 76
     1
 98
        1
 10
0.0
 20
0.0
450
        0
451
        0
460
0.0
461
0.0
452
        0
462
0.0
453
        0
470

1001
REVIT
1002
{
1070
     1
1000
564447
1002
}
1002
{
1070
     5
1000
372261
1002
}
1002
{
1070
     2
1000
-2005022
1002
}
  0
LINE
  5
242
330
70
100
AcDbEntity
  8
_ARDEX - WELDTEC_
100
AcDbLine
 10
3792.605581749518
 20
2487.957244549569
 30
0.0
 11
3809.796736773173
 21
2487.957244549569
 31
0.0
1001
REVIT
1002
{
1070
     1
1000
564447
1002
}
1002
{
1070
     5
1000
372261
1002
}
1002
{
1070
     2
1000
-2005022
1002
}
  0
LINE
  5
243
330
70
100
AcDbEntity
  8
_ARDEX - WELDTEC_
100
AcDbLine
 10
3792.605581749518
 20
2399.02583791548
 30
0.0
 11
3792.605581749518
 21
2487.957244549569
 31
0.0
1001
REVIT
1002
{
1070
     1
1000
564447
1002
}
1002
{
1070
     5
1000
372261
1002
}
1002
{
1070
     2
1000
-2005022
1002
}
  0
MTEXT
  5
244
330
70
100
AcDbEntity
  8
_ARDEX - WELDTEC_
100
AcDbMText
 10
3813.840295842385
 20
2489.913286216236
 30
0.0
 40
4.0
 41
94.43878750000001
 46
0.0
 71
     1
 72
     1
  1
PLYWOOD PITCHED TO FALLS
  7
Swis721 Lt BT
 73
     2
 44
1.0
1001
REVIT
1002
{
1070
     1
1000
564447
1002
}
1002
{
1070
     5
1000
372261
1002
}
1002
{
1070
     2
1000
-2005022
1002
}
  0
MTEXT
  5
245
330
70
100
AcDbEntity
  8
_ARDEX - WELDTEC_
100
AcDbMText
 10
3376.451266003404
 20
2309.101968185071
 30
0.0
 40
4.0
 41
265.5189
 46
0.0
 71
     1
 72
     1
  1
NOTE: FOR FASTENING OR FIXING PATTERN DEPENDENT ON WIND ZONE/R VALUES.
  7
Swis721 Lt BT
 73
     2
 44
1.0
1001
REVIT
1002
{
1070
     1
1000
565556
1002
}
1002
{
1070
     5
1000
343954
1002
}
1002
{
1070
     2
1000
-2000300
1002
}
  0
MTEXT
  5
246
330
70
100
AcDbEntity
  8
_ARDEX - WELDTEC_
100
AcDbMText
 10
3376.451266003404
 20
2302.355093185072
 30
0.0
 40
4.0
 41
140.6159874999999
 46
0.0
 71
     1
 72
     1
  1
CONSULT WITH AN ARDEX REPRESENTATIVE
  7
Swis721 Lt BT
 73
     2
 44
1.0
1001
REVIT
1002
{
1070
     1
1000
565556
1002
}
1002
{
1070
     5
1000
343954
1002
}
1002
{
1070
     2
1000
-2000300
1002
}
  0
CIRCLE
  5
247
330
70
100
AcDbEntity
  8
_ARDEX - WELDTEC_
100
AcDbCircle
 10
3645.606712540143
 20
2447.755123689548
 30
0.0
 40
1.500000000000454
1001
REVIT
1002
{
1070
     1
1000
598108
1002
}
1002
{
1070
     5
1000
372253
1002
}
1002
{
1070
     2
1000
-2005022
1002
}
  0
HATCH
  5
248
330
70
100
AcDbEntity
  8
_ARDEX - WELDTEC_
100
AcDbHatch
 10
0.0
 20
0.0
 30
0.0
210
0.0
220
0.0
230
1.0
  2
SOLID
 70
     1
 71
     0
 91
        1
 92
        1
 93
        1
 72
     2
 10
3645.606712540143
 20
2447.755123689548
 40
1.500000000000454
 50
0.0
 51
360.0
 73
     1
 97
        0
 75
     0
 76
     1
 98
        1
 10
0.0
 20
0.0
450
        0
451
        0
460
0.0
461
0.0
452
        0
462
0.0
453
        0
470

1001
REVIT
1002
{
1070
     1
1000
598108
1002
}
1002
{
1070
     5
1000
372253
1002
}
1002
{
1070
     2
1000
-2005022
1002
}
  0
LINE
  5
249
330
70
100
AcDbEntity
  8
_ARDEX - WELDTEC_
100
AcDbLine
 10
3645.606712540143
 20
2577.430065769823
 30
0.0
 11
3809.796736773173
 21
2577.430065769823
 31
0.0
1001
REVIT
1002
{
1070
     1
1000
598108
1002
}
1002
{
1070
     5
1000
372253
1002
}
1002
{
1070
     2
1000
-2005022
1002
}
  0
LINE
  5
24A
330
70
100
AcDbEntity
  8
_ARDEX - WELDTEC_
100
AcDbLine
 10
3645.606712540143
 20
2447.755123689548
 30
0.0
 11
3645.606712540143
 21
2577.430065769823
 31
0.0
1001
REVIT
1002
{
1070
     1
1000
598108
1002
}
1002
{
1070
     5
1000
372253
1002
}
1002
{
1070
     2
1000
-2005022
1002
}
  0
MTEXT
  5
24B
330
70
100
AcDbEntity
  8
_ARDEX - WELDTEC_
100
AcDbMText
 10
3813.840295842385
 20
2586.12610743649
 30
0.0
 40
4.0
 41
100.0506
 46
0.0
 71
     1
 72
     1
  1
ARDEX MECHANICAL FIXINGS IF
  7
Swis721 Lt BT
 73
     2
 44
1.0
1001
REVIT
1002
{
1070
     1
1000
598108
1002
}
1002
{
1070
     5
1000
372253
1002
}
1002
{
1070
     2
1000
-2005022
1002
}
  0
MTEXT
  5
24C
330
70
100
AcDbEntity
  8
_ARDEX - WELDTEC_
100
AcDbMText
 10
3813.840295842385
 20
2579.37923243649
 30
0.0
 40
4.0
 41
102.7763375
 46
0.0
 71
     1
 72
     1
  1
NOT USING TWIN PACK POLYISO
  7
Swis721 Lt BT
 73
     2
 44
1.0
1001
REVIT
1002
{
1070
     1
1000
598108
1002
}
1002
{
1070
     5
1000
372253
1002
}
1002
{
1070
     2
1000
-2005022
1002
}
  0
MTEXT
  5
24D
330
70
100
AcDbEntity
  8
_ARDEX - WELDTEC_
100
AcDbMText
 10
3813.840295842385
 20
2572.63235743649
 30
0.0
 40
4.0
 41
31.746825
 46
0.0
 71
     1
 72
     1
  1
ADHESIVE
  7
Swis721 Lt BT
 73
     2
 44
1.0
1001
REVIT
1002
{
1070
     1
1000
598108
1002
}
1002
{
1070
     5
1000
372253
1002
}
1002
{
1070
     2
1000
-2005022
1002
}
  0
VIEWPORT
  5
24E
330
6C
100
AcDbEntity
 67
     1
  8
_ARDEX - WELDTEC_
100
AcDbViewport
 10
145.3206709818606
 20
98.90472072059221
 30
0.0
 40
283.0000115076765
 41
200.6000046070426
 68
    -1
 69
     2
 12
3652.384083370216
 22
2446.357793104156
 13
0.0
 23
0.0
 14
0.0
 24
0.0
 15
0.0
 25
0.0
 16
0.0
 26
0.0
 36
1.0
 17
0.0
 27
0.0
 37
0.0
 42
0.0
 43
0.0
 44
0.0
 45
401.2000092140852
 50
0.0
 51
0.0
 72
  1000
 90
    32768
  1

281
     0
 71
     1
 74
     1
110
0.0
120
0.0
130
0.0
111
1.0
121
0.0
131
0.0
112
0.0
122
1.0
132
0.0
 79
     0
146
0.0
170
     0
 61
     5
292
     1
282
     1
141
0.0
142
0.0
 63
   250
421
  3355443
  0
VIEWPORT
  5
250
330
6C
100
AcDbEntity
 67
     1
  8
0
100
AcDbViewport
 10
6.0
 20
4.5
 30
0.0
 40
12.0
 41
9.0
 68
    -1
 69
     1
 12
6.0
 22
4.5
 13
0.0
 23
0.0
 14
0.0
 24
0.0
 15
0.0
 25
0.0
 16
0.0
 26
0.0
 36
1.0
 17
0.0
 27
0.0
 37
0.0
 42
50.0
 43
0.0
 44
0.0
 45
12.0
 50
0.0
 51
0.0
 72
   100
 90
    32800
  1

281
     0
 71
     1
 74
     1
110
0.0
120
0.0
130
0.0
111
1.0
121
0.0
131
0.0
112
0.0
122
1.0
132
0.0
 79
     0
146
0.0
170
     0
 61
     5
292
     1
282
     1
141
0.0
142
0.0
 63
   250
421
  3355443
  0
INSERT
  5
2E1
330
6C
100
AcDbEntity
 67
     1
  8
_ARDEX - WELDTEC_
100
AcDbBlockReference
  2
_ARDEX_ Landscape Title block - _ARDEX_ Landscape Title block-333213-WARM ROOF SYSTEM - PLYWOOD
 10
0.0
 20
0.0
 30
0.0
1001
REVIT
1002
{
1070
     1
1000
564640
1002
}
1002
{
1070
     5
1000
333213
1002
}
1002
{
1070
     2
1000
-2000280
1002
}
  0
MTEXT
  5
2E3
330
6C
100
AcDbEntity
 67
     1
  8
_ARDEX - WELDTEC_
100
AcDbMText
 10
231.0292895384866
 20
4.159953483062439
 30
0.0
 40
2.0
 41
7.295356249999999
 46
0.0
 71
     1
 72
     1
  1
 1 : 2
  7
Swis721 Lt BT_4
 73
     2
 44
1.0
 90
        3
 63
     9
421
 13158600
 45
1.25
441
        0
1001
REVIT
1002
{
1070
     1
1000
564640
1002
}
1002
{
1070
     5
1000
333213
1002
}
1002
{
1070
     2
1000
-2000280
1002
}
  0
MTEXT
  5
2E5
330
6C
100
AcDbEntity
 67
     1
  8
_ARDEX - WELDTEC_
 62
   133
420
  7589074
100
AcDbMText
 10
7.016261025088629
 20
17.11411991695474
 30
0.0
 40
5.0
 41
101.517688125
 46
0.0
 71
     1
 72
     1
  1
ARDEX WARM ROOFING
  7
Arial Black_B
 73
     2
 44
1.0
1001
REVIT
1002
{
1070
     1
1000
564640
1002
}
1002
{
1070
     5
1000
333213
1002
}
1002
{
1070
     2
1000
-2000280
1002
}
  0
MTEXT
  5
2E7
330
6C
100
AcDbEntity
 67
     1
  8
_ARDEX - WELDTEC_
100
AcDbMText
 10
95.1576274176504
 20
13.00813448458874
 30
0.0
 40
3.0
 41
79.52739999999998
 46
0.0
 71
     1
 72
     1
  1
WARM ROOF SYSTEM - PLYWOOD
  7
Swis721 Lt BT_5
 73
     2
 44
1.0
 90
        3
 63
     9
421
 13158600
 45
1.25
441
        0
1001
REVIT
1002
{
1070
     1
1000
564640
1002
}
1002
{
1070
     5
1000
333213
1002
}
1002
{
1070
     2
1000
-2000280
1002
}
  0
MTEXT
  5
2E9
330
6C
100
AcDbEntity
 67
     1
  8
_ARDEX - WELDTEC_
100
AcDbMText
 10
231.6542895384866
 20
17.41984908362141
 30
0.0
 40
4.0
 41
26.05484375
 46
0.0
 71
     1
 72
     1
  1
AWR-20
  7
Arial
 73
     2
 44
1.0
 90
        3
 63
     9
421
 13158600
 45
1.25
441
        0
1001
REVIT
1002
{
1070
     1
1000
564640
1002
}
1002
{
1070
     5
1000
333213
1002
}
1002
{
1070
     2
1000
-2000280
1002
}
  0
MTEXT
  5
2EA
330
6C
100
AcDbEntity
 67
     1
  8
_ARDEX - WELDTEC_
100
AcDbMText
 10
231.6542895384866
 20
8.218762607224865
 30
0.0
 40
2.0
 41
16.8354375
 46
0.0
 71
     1
 72
     1
  1
01/07/2022
  7
Swis721 Lt BT_4
 73
     2
 44
1.0
 90
        3
 63
     9
421
 13158600
 45
1.25
441
        0
1001
REVIT
1002
{
1070
     1
1000
564640
1002
}
1002
{
1070
     5
1000
333213
1002
}
1002
{
1070
     2
1000
-2000280
1002
}
  0
ENDSEC
  0
SECTION
  2
OBJECTS
  0
DICTIONARY
  5
C
330
0
100
AcDbDictionary
281
     1
  3
ACAD_CIP_PREVIOUS_PRODUCT_INFO
350
79
  3
ACAD_COLOR
350
63
  3
ACAD_DETAILVIEWSTYLE
350
6A
  3
ACAD_GROUP
350
D
  3
ACAD_IMAGE_VARS
350
7A
  3
ACAD_LAYOUT
350
62
  3
ACAD_MATERIAL
350
10
  3
ACAD_MLEADERSTYLE
350
66
  3
ACAD_MLINESTYLE
350
5F
  3
ACAD_PLOTSETTINGS
350
61
  3
ACAD_PLOTSTYLENAME
350
E
  3
ACAD_SCALELIST
350
42
  3
ACAD_SECTIONVIEWSTYLE
350
68
  3
ACAD_TABLESTYLE
350
64
  3
ACAD_VISUALSTYLE
350
29
  3
ACDB_RECOMPOSE_DATA
350
2F9
  3
AcDbVariableDictionary
350
7B
  3
REVIT_DICTIONARY
350
2EB
  0
SUN
  5
2F3
330
57
100
AcDbSun
 90
        1
290
     1
 63
     7
421
 16777215
 40
0.3
291
     1
 91
  2459407
 92
 65377000
292
     0
 70
     1
 71
   128
280
     1
1001
ACAD
1000
AcDbSavedByObjectVersion
1070
     0
  0
DICTIONARY
  5
2F0
330
70
100
AcDbDictionary
280
     1
281
     1
  3
ACAD_SORTENTS
360
2F1
  0
XRECORD
  5
79
102
{ACAD_REACTORS
330
C
102
}
330
C
100
AcDbXrecord
280
     1
300
RVT
300
2023
300
RVT2023
  0
DICTIONARY
  5
63
102
{ACAD_REACTORS
330
C
102
}
330
C
100
AcDbDictionary
281
     1
  0
DICTIONARY
  5
6A
102
{ACAD_REACTORS
330
C
102
}
330
C
100
AcDbDictionary
281
     1
  3
Imperial24
350
6B
  0
DICTIONARY
  5
D
102
{ACAD_REACTORS
330
C
102
}
330
C
100
AcDbDictionary
281
     1
  0
RASTERVARIABLES
  5
7A
102
{ACAD_REACTORS
330
C
102
}
330
C
100
AcDbRasterVariables
 90
        0
 70
     0
 71
     1
 72
     1
  0
DICTIONARY
  5
62
102
{ACAD_REACTORS
330
C
102
}
330
C
100
AcDbDictionary
281
     1
  3
Layout1
350
6F
  3
Layout2
350
77
  3
Model
350
73
  0
DICTIONARY
  5
10
102
{ACAD_REACTORS
330
C
102
}
330
C
100
AcDbDictionary
281
     1
  3
ByBlock
350
19
  3
ByLayer
350
11
  3
Global
350
21
  0
DICTIONARY
  5
66
102
{ACAD_REACTORS
330
C
102
}
330
C
100
AcDbDictionary
281
     1
  3
Standard
350
67
  0
DICTIONARY
  5
5F
102
{ACAD_REACTORS
330
C
102
}
330
C
100
AcDbDictionary
281
     1
  3
Standard
350
60
  0
DICTIONARY
  5
61
102
{ACAD_REACTORS
330
C
102
}
330
C
100
AcDbDictionary
281
     1
  0
ACDBDICTIONARYWDFLT
  5
E
102
{ACAD_REACTORS
330
C
102
}
330
C
100
AcDbDictionary
281
     1
  3
Normal
350
F
100
AcDbDictionaryWithDefault
340
F
  0
DICTIONARY
  5
42
102
{ACAD_REACTORS
330
C
102
}
330
C
100
AcDbDictionary
281
     1
  3
A0
350
43
  3
A1
350
44
  3
A2
350
45
  3
A3
350
46
  3
A4
350
47
  3
A5
350
48
  3
A6
350
49
  3
A7
350
4A
  3
A8
350
4B
  3
A9
350
4C
  3
B0
350
4D
  3
B1
350
4E
  3
B2
350
4F
  3
B3
350
50
  3
B4
350
51
  3
B5
350
52
  3
B6
350
53
  0
DICTIONARY
  5
68
102
{ACAD_REACTORS
330
C
102
}
330
C
100
AcDbDictionary
281
     1
  3
Imperial24
350
69
  0
DICTIONARY
  5
64
102
{ACAD_REACTORS
330
C
102
}
330
C
100
AcDbDictionary
281
     1
  3
Standard
350
65
  0
DICTIONARY
  5
29
102
{ACAD_REACTORS
330
C
102
}
330
C
100
AcDbDictionary
281
     1
  3
2dWireframe
350
2F
  3
Basic
350
2E
  3
Brighten
350
35
  3
ColorChange
350
39
  3
Conceptual
350
32
  3
Dim
350
34
  3
EdgeColorOff
350
41
  3
Facepattern
350
38
  3
Flat
350
2A
  3
FlatWithEdges
350
2B
  3
Gouraud
350
2C
  3
GouraudWithEdges
350
2D
  3
Hidden
350
31
  3
JitterOff
350
3F
  3
Linepattern
350
37
  3
OverhangOff
350
40
  3
Realistic
350
33
  3
Shaded
350
3E
  3
Shaded with edges
350
3D
  3
Shades of Gray
350
3A
  3
Sketchy
350
3B
  3
Thicken
350
36
  3
Wireframe
350
30
  3
X-Ray
350
3C
  0
XRECORD
  5
2F9
102
{ACAD_REACTORS
330
C
102
}
330
C
100
AcDbXrecord
280
     1
 90
        1
330
65
  0
DICTIONARY
  5
7B
102
{ACAD_REACTORS
330
C
102
}
330
C
100
AcDbDictionary
281
     1
  3
CANNOSCALE
350
80
  3
CMLEADERSTYLE
350
7D
  3
CTABLESTYLE
350
7C
  3
CVIEWDETAILSTYLE
350
7E
  3
CVIEWSECTIONSTYLE
350
7F
  3
XCLIPFRAME
350
81
  0
DICTIONARY
  5
2EB
102
{ACAD_REACTORS
330
C
102
}
330
C
100
AcDbDictionary
281
     1
  3
DRAWING_TOOL
350
2EF
  3
REVIT_CATEGORY_MAPPING
350
2ED
  3
REVIT_SUB_CATEGORY_MAPPING
350
2EE
  3
REVIT_TYPE_MAPPING
350
2EC
  0
SORTENTSTABLE
  5
2F1
102
{ACAD_REACTORS
330
2F0
102
}
330
2F0
100
AcDbSortentsTable
330
70
  0
ACDBDETAILVIEWSTYLE
  5
6B
102
{ACAD_XDICTIONARY
360
32F
102
}
102
{ACAD_REACTORS
330
6A
102
}
330
6A
100
AcDbModelDocViewStyle
 70
     0
  3
Imperial24
290
     0
100
AcDbDetailViewStyle
 70
     0
 71
     0
 90
        3
 71
     1
340
55
 62
   256
 40
0.24
340
0
 62
   256
 40
0.24
300

 40
0.36
280
     3
 71
     2
340
5D
 90
       25
 62
   256
 71
     3
340
55
 62
   256
 40
0.24
 90
        1
 40
0.75
 90
        1
300
%<\AcVar ViewType \f "%tc1">% %<\AcVar ViewDetailId>%\PSCALE %<\AcVar ViewScale \f "%sn">%
 71
     4
340
5D
 90
       25
 62
   256
340
5D
 90
       25
 62
   256
280
     0
  0
LAYOUT
  5
6F
102
{ACAD_REACTORS
330
62
102
}
330
62
100
AcDbPlotSettings
  1

  2

  4

  6

 40
0.0
 41
0.0
 42
0.0
 43
0.0
 44
0.0
 45
0.0
 46
0.0
 47
0.0
 48
0.0
 49
0.0
140
0.0
141
0.0
142
1.0
143
1.0
 70
   688
 72
     0
 73
     0
 74
     5
  7

 75
    16
147
1.0
 76
     0
 77
     2
 78
   300
148
0.0
149
0.0
100
AcDbLayout
  1
Layout1
 70
     1
 71
     1
 10
0.0
 20
0.0
 11
12.0
 21
9.0
 12
0.0
 22
0.0
 32
0.0
 14
0.0
 24
0.0
 34
0.0
 15
0.0
 25
0.0
 35
0.0
146
0.0
 13
0.0
 23
0.0
 33
0.0
 16
1.0
 26
0.0
 36
0.0
 17
0.0
 27
1.0
 37
0.0
 76
     0
330
6C
  0
LAYOUT
  5
77
102
{ACAD_REACTORS
330
62
102
}
330
62
100
AcDbPlotSettings
  1

  2

  4

  6

 40
0.0
 41
0.0
 42
0.0
 43
0.0
 44
0.0
 45
0.0
 46
0.0
 47
0.0
 48
0.0
 49
0.0
140
0.0
141
0.0
142
1.0
143
1.0
 70
   688
 72
     0
 73
     0
 74
     5
  7

 75
    16
147
1.0
 76
     0
 77
     2
 78
   300
148
0.0
149
0.0
100
AcDbLayout
  1
Layout2
 70
     1
 71
     2
 10
0.0
 20
0.0
 11
12.0
 21
9.0
 12
0.0
 22
0.0
 32
0.0
 14
0.0
 24
0.0
 34
0.0
 15
0.0
 25
0.0
 35
0.0
146
0.0
 13
0.0
 23
0.0
 33
0.0
 16
1.0
 26
0.0
 36
0.0
 17
0.0
 27
1.0
 37
0.0
 76
     0
330
74
  0
LAYOUT
  5
73
102
{ACAD_REACTORS
330
62
102
}
330
62
100
AcDbPlotSettings
  1

  2

  4

  6

 40
0.0
 41
0.0
 42
0.0
 43
0.0
 44
0.0
 45
0.0
 46
0.0
 47
0.0
 48
0.0
 49
0.0
140
0.0
141
0.0
142
1.0
143
1.0
 70
  1712
 72
     0
 73
     0
 74
     0
  7

 75
     0
147
1.0
 76
     0
 77
     2
 78
   300
148
0.0
149
0.0
100
AcDbLayout
  1
Model
 70
     1
 71
     0
 10
0.0
 20
0.0
 11
12.0
 21
9.0
 12
0.0
 22
0.0
 32
0.0
 14
0.0
 24
0.0
 34
0.0
 15
0.0
 25
0.0
 35
0.0
146
0.0
 13
0.0
 23
0.0
 33
0.0
 16
1.0
 26
0.0
 36
0.0
 17
0.0
 27
1.0
 37
0.0
 76
     0
330
70
  0
MATERIAL
  5
19
102
{ACAD_XDICTIONARY
360
1A
102
}
102
{ACAD_REACTORS
330
10
102
}
330
10
100
AcDbMaterial
  1
ByBlock
 72
     0
 43
0.0208333333333333
 43
0.0
 43
0.0
 43
0.0
 43
0.0
 43
0.0208333333333333
 43
0.0
 43
0.0
 43
0.0
 43
0.0
 43
1.0
 43
0.0
 43
0.0
 43
0.0
 43
0.0
 43
1.0
 77
     0
 47
0.0208333333333333
 47
0.0
 47
0.0
 47
0.0
 47
0.0
 47
0.0208333333333333
 47
0.0
 47
0.0
 47
0.0
 47
0.0
 47
1.0
 47
0.0
 47
0.0
 47
0.0
 47
0.0
 47
1.0
171
     0
 49
0.0208333333333333
 49
0.0
 49
0.0
 49
0.0
 49
0.0
 49
0.0208333333333333
 49
0.0
 49
0.0
 49
0.0
 49
0.0
 49
1.0
 49
0.0
 49
0.0
 49
0.0
 49
0.0
 49
1.0
175
     0
142
0.0208333333333333
142
0.0
142
0.0
142
0.0
142
0.0
142
0.0208333333333333
142
0.0
142
0.0
142
0.0
142
0.0
142
1.0
142
0.0
142
0.0
142
0.0
142
0.0
142
1.0
179
     0
144
0.0208333333333333
144
0.0
144
0.0
144
0.0
144
0.0
144
0.0208333333333333
144
0.0
144
0.0
144
0.0
144
0.0
144
1.0
144
0.0
144
0.0
144
0.0
144
0.0
144
1.0
147
0.0208333333333333
147
0.0
147
0.0
147
0.0
147
0.0
147
0.0208333333333333
147
0.0
147
0.0
147
0.0
147
0.0
147
1.0
147
0.0
147
0.0
147
0.0
147
0.0
147
1.0
  0
MATERIAL
  5
11
102
{ACAD_XDICTIONARY
360
12
102
}
102
{ACAD_REACTORS
330
10
102
}
330
10
100
AcDbMaterial
  1
ByLayer
 72
     0
 43
0.0208333333333333
 43
0.0
 43
0.0
 43
0.0
 43
0.0
 43
0.0208333333333333
 43
0.0
 43
0.0
 43
0.0
 43
0.0
 43
1.0
 43
0.0
 43
0.0
 43
0.0
 43
0.0
 43
1.0
 77
     0
 47
0.0208333333333333
 47
0.0
 47
0.0
 47
0.0
 47
0.0
 47
0.0208333333333333
 47
0.0
 47
0.0
 47
0.0
 47
0.0
 47
1.0
 47
0.0
 47
0.0
 47
0.0
 47
0.0
 47
1.0
171
     0
 49
0.0208333333333333
 49
0.0
 49
0.0
 49
0.0
 49
0.0
 49
0.0208333333333333
 49
0.0
 49
0.0
 49
0.0
 49
0.0
 49
1.0
 49
0.0
 49
0.0
 49
0.0
 49
0.0
 49
1.0
175
     0
142
0.0208333333333333
142
0.0
142
0.0
142
0.0
142
0.0
142
0.0208333333333333
142
0.0
142
0.0
142
0.0
142
0.0
142
1.0
142
0.0
142
0.0
142
0.0
142
0.0
142
1.0
179
     0
144
0.0208333333333333
144
0.0
144
0.0
144
0.0
144
0.0
144
0.0208333333333333
144
0.0
144
0.0
144
0.0
144
0.0
144
1.0
144
0.0
144
0.0
144
0.0
144
0.0
144
1.0
147
0.0208333333333333
147
0.0
147
0.0
147
0.0
147
0.0
147
0.0208333333333333
147
0.0
147
0.0
147
0.0
147
0.0
147
1.0
147
0.0
147
0.0
147
0.0
147
0.0
147
1.0
  0
MATERIAL
  5
21
102
{ACAD_XDICTIONARY
360
22
102
}
102
{ACAD_REACTORS
330
10
102
}
330
10
100
AcDbMaterial
  1
Global
 72
     0
 43
0.0208333333333333
 43
0.0
 43
0.0
 43
0.0
 43
0.0
 43
0.0208333333333333
 43
0.0
 43
0.0
 43
0.0
 43
0.0
 43
1.0
 43
0.0
 43
0.0
 43
0.0
 43
0.0
 43
1.0
 77
     0
 47
0.0208333333333333
 47
0.0
 47
0.0
 47
0.0
 47
0.0
 47
0.0208333333333333
 47
0.0
 47
0.0
 47
0.0
 47
0.0
 47
1.0
 47
0.0
 47
0.0
 47
0.0
 47
0.0
 47
1.0
171
     0
 49
0.0208333333333333
 49
0.0
 49
0.0
 49
0.0
 49
0.0
 49
0.0208333333333333
 49
0.0
 49
0.0
 49
0.0
 49
0.0
 49
1.0
 49
0.0
 49
0.0
 49
0.0
 49
0.0
 49
1.0
175
     0
142
0.0208333333333333
142
0.0
142
0.0
142
0.0
142
0.0
142
0.0208333333333333
142
0.0
142
0.0
142
0.0
142
0.0
142
1.0
142
0.0
142
0.0
142
0.0
142
0.0
142
1.0
179
     0
144
0.0208333333333333
144
0.0
144
0.0
144
0.0
144
0.0
144
0.0208333333333333
144
0.0
144
0.0
144
0.0
144
0.0
144
1.0
144
0.0
144
0.0
144
0.0
144
0.0
144
1.0
147
0.0208333333333333
147
0.0
147
0.0
147
0.0
147
0.0
147
0.0208333333333333
147
0.0
147
0.0
147
0.0
147
0.0
147
1.0
147
0.0
147
0.0
147
0.0
147
0.0
147
1.0
  0
MLEADERSTYLE
  5
67
102
{ACAD_XDICTIONARY
360
32B
102
}
102
{ACAD_REACTORS
330
66
102
}
330
66
100
AcDbMLeaderStyle
170
     2
171
     1
172
     0
 90
        2
 40
0.0
 41
0.0
173
     1
 91
-1056964608
340
5B
 92
       -2
290
     1
 42
0.09
291
     1
 43
0.36
  3
Standard
 44
0.18
300

342
55
174
     1
178
     6
175
     1
176
     0
 93
-1056964608
 45
0.18
292
     0
297
     0
 46
0.18
 94
-1056964608
 47
1.0
 49
1.0
140
1.0
293
     1
141
0.0
294
     1
177
     0
142
1.0
295
     0
296
     0
143
0.125
1001
ACAD_MLEADERVER
1070
     2
  0
MLINESTYLE
  5
60
102
{ACAD_REACTORS
330
5F
102
}
330
5F
100
AcDbMlineStyle
  2
STANDARD
 70
     0
  3

 62
   256
 51
90.0
 52
90.0
 71
     2
 49
0.5
 62
   256
  6
BYLAYER
 49
-0.5
 62
   256
  6
BYLAYER
  0
ACDBPLACEHOLDER
  5
F
102
{ACAD_REACTORS
330
E
102
}
330
E
  0
SCALE
  5
43
102
{ACAD_REACTORS
330
42
102
}
330
42
100
AcDbScale
 70
     0
300
1:1
140
1.0
141
1.0
290
     1
  0
SCALE
  5
44
102
{ACAD_REACTORS
330
42
102
}
330
42
100
AcDbScale
 70
     0
300
1/128" = 1'-0"
140
0.0078125
141
12.0
290
     0
  0
SCALE
  5
45
102
{ACAD_REACTORS
330
42
102
}
330
42
100
AcDbScale
 70
     0
300
1/64" = 1'-0"
140
0.015625
141
12.0
290
     0
  0
SCALE
  5
46
102
{ACAD_REACTORS
330
42
102
}
330
42
100
AcDbScale
 70
     0
300
1/32" = 1'-0"
140
0.03125
141
12.0
290
     0
  0
SCALE
  5
47
102
{ACAD_REACTORS
330
42
102
}
330
42
100
AcDbScale
 70
     0
300
1/16" = 1'-0"
140
0.0625
141
12.0
290
     0
  0
SCALE
  5
48
102
{ACAD_REACTORS
330
42
102
}
330
42
100
AcDbScale
 70
     0
300
3/32" = 1'-0"
140
0.09375
141
12.0
290
     0
  0
SCALE
  5
49
102
{ACAD_REACTORS
330
42
102
}
330
42
100
AcDbScale
 70
     0
300
1/8" = 1'-0"
140
0.125
141
12.0
290
     0
  0
SCALE
  5
4A
102
{ACAD_REACTORS
330
42
102
}
330
42
100
AcDbScale
 70
     0
300
3/16" = 1'-0"
140
0.1875
141
12.0
290
     0
  0
SCALE
  5
4B
102
{ACAD_REACTORS
330
42
102
}
330
42
100
AcDbScale
 70
     0
300
1/4" = 1'-0"
140
0.25
141
12.0
290
     0
  0
SCALE
  5
4C
102
{ACAD_REACTORS
330
42
102
}
330
42
100
AcDbScale
 70
     0
300
3/8" = 1'-0"
140
0.375
141
12.0
290
     0
  0
SCALE
  5
4D
102
{ACAD_REACTORS
330
42
102
}
330
42
100
AcDbScale
 70
     0
300
1/2" = 1'-0"
140
0.5
141
12.0
290
     0
  0
SCALE
  5
4E
102
{ACAD_REACTORS
330
42
102
}
330
42
100
AcDbScale
 70
     0
300
3/4" = 1'-0"
140
0.75
141
12.0
290
     0
  0
SCALE
  5
4F
102
{ACAD_REACTORS
330
42
102
}
330
42
100
AcDbScale
 70
     0
300
1" = 1'-0"
140
1.0
141
12.0
290
     0
  0
SCALE
  5
50
102
{ACAD_REACTORS
330
42
102
}
330
42
100
AcDbScale
 70
     0
300
1-1/2" = 1'-0"
140
1.5
141
12.0
290
     0
  0
SCALE
  5
51
102
{ACAD_REACTORS
330
42
102
}
330
42
100
AcDbScale
 70
     0
300
3" = 1'-0"
140
3.0
141
12.0
290
     0
  0
SCALE
  5
52
102
{ACAD_REACTORS
330
42
102
}
330
42
100
AcDbScale
 70
     0
300
6" = 1'-0"
140
6.0
141
12.0
290
     0
  0
SCALE
  5
53
102
{ACAD_REACTORS
330
42
102
}
330
42
100
AcDbScale
 70
     0
300
1'-0" = 1'-0"
140
12.0
141
12.0
290
     0
  0
ACDBSECTIONVIEWSTYLE
  5
69
102
{ACAD_XDICTIONARY
360
32D
102
}
102
{ACAD_REACTORS
330
68
102
}
330
68
100
AcDbModelDocViewStyle
 70
     0
  3
Imperial24
290
     0
100
AcDbSectionViewStyle
 70
     0
 71
     0
 90
       78
 71
     1
340
55
 62
   256
 40
0.24
340
0
340
0
 62
   256
 40
0.24
300
I, O, Q, S, X, Z
 40
0.48
 90
        3
 40
0.18
 90
        1
 71
     2
340
5D
 90
       25
 62
   256
340
5D
 90
       50
 62
   256
 40
0.24
 40
0.0
 40
0.24
 71
     3
340
55
 62
   256
 40
0.24
 90
        1
 40
0.75
 90
        1
300
%<\AcVar ViewType \f "%tc1">% %<\AcVar ViewSectionStartId>%-%<\AcVar ViewSectionEndId>%\PSCALE %<\AcVar ViewScale \f "%sn">%
 71
     4
 62
   256
 62
   257
300
ANSI31
 40
1.0
 90
        0
290
     0
290
     0
 90
        6
 40
0.0
 40
1.570796326794896
 40
0.2617993877991494
 40
1.308996938995747
 40
-0.2617993877991494
 40
1.832595714594046
  0
TABLESTYLE
  5
65
102
{ACAD_XDICTIONARY
360
2F4
102
}
102
{ACAD_REACTORS
330
64
102
}
330
64
100
AcDbTableStyle
  3
Standard
 70
     0
 71
     0
 40
0.06
 41
0.06
280
     0
281
     0
  7
Standard
140
0.18
170
     2
 62
     0
 63
     7
283
     0
 90
      512
 91
        0
  1

274
    -2
284
     1
 64
     0
275
    -2
285
     1
 65
     0
276
    -2
286
     1
 66
     0
277
    -2
287
     1
 67
     0
278
    -2
288
     1
 68
     0
279
    -2
289
     1
 69
     0
  7
Standard
140
0.25
170
     5
 62
     0
 63
     7
283
     0
 90
      512
 91
        0
  1

274
    -2
284
     1
 64
     0
275
    -2
285
     1
 65
     0
276
    -2
286
     1
 66
     0
277
    -2
287
     1
 67
     0
278
    -2
288
     1
 68
     0
279
    -2
289
     1
 69
     0
  7
Standard
140
0.18
170
     5
 62
     0
 63
     7
283
     0
 90
      512
 91
        0
  1

274
    -2
284
     1
 64
     0
275
    -2
285
     1
 65
     0
276
    -2
286
     1
 66
     0
277
    -2
287
     1
 67
     0
278
    -2
288
     1
 68
     0
279
    -2
289
     1
 69
     0
  0
VISUALSTYLE
  5
2F
102
{ACAD_XDICTIONARY
360
304
102
}
102
{ACAD_REACTORS
330
29
102
}
330
29
100
AcDbVisualStyle
  2
2dWireframe
 70
     4
 71
     0
 72
     2
 73
     0
 90
        0
 40
-0.6
 41
-30.0
 62
     5
 63
     7
421
 16777215
 74
     1
 91
        4
 64
     7
 65
   257
 75
     1
175
     1
 42
1.0
 92
        0
 66
   257
 43
1.0
 76
     1
 77
     6
 78
     2
 67
     7
 79
     5
170
     0
171
     0
290
     0
174
     0
 93
        1
 44
0.0
173
     0
291
     0
 45
0.0
1001
ACAD
1000
AcDbSavedByObjectVersion
1070
     0
  0
VISUALSTYLE
  5
2E
102
{ACAD_XDICTIONARY
360
302
102
}
102
{ACAD_REACTORS
330
29
102
}
330
29
100
AcDbVisualStyle
  2
Basic
 70
     7
 71
     1
 72
     0
 73
     1
 90
        0
 40
-0.6
 41
-30.0
 62
     5
 63
     7
421
 16777215
 74
     0
 91
        4
 64
     7
 65
   257
 75
     1
175
     1
 42
1.0
 92
        8
 66
     7
 43
1.0
 76
     1
 77
     6
 78
     2
 67
     7
 79
     5
170
     0
171
     0
290
     0
174
     0
 93
        1
 44
0.0
173
     0
291
     1
 45
0.0
1001
ACAD
1000
AcDbSavedByObjectVersion
1070
     0
  0
VISUALSTYLE
  5
35
102
{ACAD_XDICTIONARY
360
310
102
}
102
{ACAD_REACTORS
330
29
102
}
330
29
100
AcDbVisualStyle
  2
Brighten
 70
    12
 71
     2
 72
     2
 73
     0
 90
        0
 40
-0.6
 41
-30.0
 62
     5
 63
     7
421
 16777215
 74
     1
 91
        4
 64
     7
 65
   257
 75
     1
175
     1
 42
1.0
 92
        8
 66
     7
 43
1.0
 76
     1
 77
     6
 78
     2
 67
     7
 79
     5
170
     0
171
     0
290
     0
174
     0
 93
        1
 44
50.0
173
     0
291
     1
 45
0.0
1001
ACAD
1000
AcDbSavedByObjectVersion
1070
     0
  0
VISUALSTYLE
  5
39
102
{ACAD_XDICTIONARY
360
318
102
}
102
{ACAD_REACTORS
330
29
102
}
330
29
100
AcDbVisualStyle
  2
ColorChange
 70
    16
 71
     2
 72
     2
 73
     3
 90
        0
 40
-0.6
 41
-30.0
 62
     5
 63
     8
421
  8421504
 74
     1
 91
        4
 64
     7
 65
   257
 75
     1
175
     1
 42
1.0
 92
        8
 66
     8
424
  8421504
 43
1.0
 76
     1
 77
     6
 78
     2
 67
     7
 79
     5
170
     0
171
     0
290
     0
174
     0
 93
        1
 44
0.0
173
     0
291
     1
 45
0.0
1001
ACAD
1000
AcDbSavedByObjectVersion
1070
     0
  0
VISUALSTYLE
  5
32
102
{ACAD_XDICTIONARY
360
30A
102
}
102
{ACAD_REACTORS
330
29
102
}
330
29
100
AcDbVisualStyle
  2
Conceptual
 70
     9
 71
     3
 72
     2
 73
     0
 90
        0
 40
-0.6
 41
-30.0
 62
     5
 63
     7
421
 16777215
 74
     2
 91
        2
 64
     7
 65
   257
 75
     1
175
     1
 42
179.0
 92
        8
 66
     7
 43
1.0
 76
     1
 77
     6
 78
     2
 67
     7
 79
     3
170
     0
171
     0
290
     0
174
     0
 93
        1
 44
0.0
173
     0
291
     0
 45
0.0
1001
ACAD
1000
AcDbSavedByObjectVersion
1070
     0
  0
VISUALSTYLE
  5
34
102
{ACAD_XDICTIONARY
360
30E
102
}
102
{ACAD_REACTORS
330
29
102
}
330
29
100
AcDbVisualStyle
  2
Dim
 70
    11
 71
     2
 72
     2
 73
     0
 90
        0
 40
-0.6
 41
-30.0
 62
     5
 63
     7
421
 16777215
 74
     1
 91
        4
 64
     7
 65
   257
 75
     1
175
     1
 42
1.0
 92
        8
 66
     7
 43
1.0
 76
     1
 77
     6
 78
     2
 67
     7
 79
     5
170
     0
171
     0
290
     0
174
     0
 93
        1
 44
-50.0
173
     0
291
     1
 45
0.0
1001
ACAD
1000
AcDbSavedByObjectVersion
1070
     0
  0
VISUALSTYLE
  5
41
102
{ACAD_XDICTIONARY
360
328
102
}
102
{ACAD_REACTORS
330
29
102
}
330
29
100
AcDbVisualStyle
  2
EdgeColorOff
 70
    22
 71
     2
 72
     2
 73
     0
 90
        0
 40
-0.6
 41
-30.0
 62
     5
 63
     7
421
 16777215
 74
     1
 91
        4
 64
     7
 65
   257
 75
     1
175
     1
 42
1.0
 92
        8
 66
     7
 43
1.0
 76
     1
 77
     6
 78
     2
 67
     7
 79
     5
170
     0
171
     0
290
     0
174
     0
 93
        1
 44
0.0
173
     0
291
     1
 45
0.0
1001
ACAD
1000
AcDbSavedByObjectVersion
1070
     0
  0
VISUALSTYLE
  5
38
102
{ACAD_XDICTIONARY
360
316
102
}
102
{ACAD_REACTORS
330
29
102
}
330
29
100
AcDbVisualStyle
  2
Facepattern
 70
    15
 71
     2
 72
     2
 73
     0
 90
        0
 40
-0.6
 41
-30.0
 62
     5
 63
     7
421
 16777215
 74
     1
 91
        4
 64
     7
 65
   257
 75
     1
175
     1
 42
1.0
 92
        8
 66
     7
 43
1.0
 76
     1
 77
     6
 78
     2
 67
     7
 79
     5
170
     0
171
     0
290
     0
174
     0
 93
        1
 44
0.0
173
     0
291
     1
 45
0.0
1001
ACAD
1000
AcDbSavedByObjectVersion
1070
     0
  0
VISUALSTYLE
  5
2A
102
{ACAD_XDICTIONARY
360
2FA
102
}
102
{ACAD_REACTORS
330
29
102
}
330
29
100
AcDbVisualStyle
  2
Flat
 70
     0
 71
     2
 72
     1
 73
     1
 90
        2
 40
-0.6
 41
30.0
 62
     5
 63
     7
421
 16777215
 74
     0
 91
        0
 64
     7
 65
   257
 75
     1
175
     1
 42
1.0
 92
        8
 66
     7
 43
1.0
 76
     1
 77
     6
 78
     2
 67
     7
 79
     5
170
     0
171
     0
290
     0
174
     0
 93
       13
 44
0.0
173
     0
291
     1
 45
0.0
1001
ACAD
1000
AcDbSavedByObjectVersion
1070
     0
  0
VISUALSTYLE
  5
2B
102
{ACAD_XDICTIONARY
360
2FC
102
}
102
{ACAD_REACTORS
330
29
102
}
330
29
100
AcDbVisualStyle
  2
FlatWithEdges
 70
     1
 71
     2
 72
     1
 73
     1
 90
        2
 40
-0.6
 41
30.0
 62
     5
 63
     7
421
 16777215
 74
     1
 91
        0
 64
     7
 65
   257
 75
     1
175
     1
 42
1.0
 92
        0
 66
   257
 43
1.0
 76
     1
 77
     6
 78
     2
 67
     7
 79
     5
170
     0
171
     0
290
     0
174
     0
 93
       13
 44
0.0
173
     0
291
     1
 45
0.0
1001
ACAD
1000
AcDbSavedByObjectVersion
1070
     0
  0
VISUALSTYLE
  5
2C
102
{ACAD_XDICTIONARY
360
2FE
102
}
102
{ACAD_REACTORS
330
29
102
}
330
29
100
AcDbVisualStyle
  2
Gouraud
 70
     2
 71
     2
 72
     2
 73
     1
 90
        2
 40
-0.6
 41
30.0
 62
     5
 63
     7
421
 16777215
 74
     0
 91
        0
 64
     7
 65
   257
 75
     1
175
     1
 42
1.0
 92
        0
 66
     7
 43
1.0
 76
     1
 77
     6
 78
     2
 67
     7
 79
     5
170
     0
171
     0
290
     0
174
     0
 93
       13
 44
0.0
173
     0
291
     1
 45
0.0
1001
ACAD
1000
AcDbSavedByObjectVersion
1070
     0
  0
VISUALSTYLE
  5
2D
102
{ACAD_XDICTIONARY
360
300
102
}
102
{ACAD_REACTORS
330
29
102
}
330
29
100
AcDbVisualStyle
  2
GouraudWithEdges
 70
     3
 71
     2
 72
     2
 73
     1
 90
        2
 40
-0.6
 41
30.0
 62
     5
 63
     7
421
 16777215
 74
     1
 91
        0
 64
     7
 65
   257
 75
     1
175
     1
 42
1.0
 92
        0
 66
   257
 43
1.0
 76
     1
 77
     6
 78
     2
 67
     7
 79
     5
170
     0
171
     0
290
     0
174
     0
 93
       13
 44
0.0
173
     0
291
     1
 45
0.0
1001
ACAD
1000
AcDbSavedByObjectVersion
1070
     0
  0
VISUALSTYLE
  5
31
102
{ACAD_XDICTIONARY
360
308
102
}
102
{ACAD_REACTORS
330
29
102
}
330
29
100
AcDbVisualStyle
  2
Hidden
 70
     6
 71
     1
 72
     2
 73
     2
 90
        0
 40
-0.6
 41
-30.0
 62
     5
 63
     7
421
 16777215
 74
     2
 91
        2
 64
     7
 65
   257
 75
     2
175
     1
 42
40.0
 92
        0
 66
   257
 43
1.0
 76
     1
 77
     6
 78
     2
 67
     7
 79
     3
170
     0
171
     0
290
     0
174
     0
 93
        1
 44
0.0
173
     0
291
     0
 45
0.0
1001
ACAD
1000
AcDbSavedByObjectVersion
1070
     0
  0
VISUALSTYLE
  5
3F
102
{ACAD_XDICTIONARY
360
324
102
}
102
{ACAD_REACTORS
330
29
102
}
330
29
100
AcDbVisualStyle
  2
JitterOff
 70
    20
 71
     2
 72
     2
 73
     0
 90
        0
 40
-0.6
 41
-30.0
 62
     5
 63
     7
421
 16777215
 74
     1
 91
        4
 64
     7
 65
   257
 75
     1
175
     1
 42
1.0
 92
       10
 66
     7
 43
1.0
 76
     1
 77
     6
 78
     2
 67
     7
 79
     5
170
     0
171
     0
290
     0
174
     0
 93
        1
 44
0.0
173
     0
291
     1
 45
0.0
1001
ACAD
1000
AcDbSavedByObjectVersion
1070
     0
  0
VISUALSTYLE
  5
37
102
{ACAD_XDICTIONARY
360
314
102
}
102
{ACAD_REACTORS
330
29
102
}
330
29
100
AcDbVisualStyle
  2
Linepattern
 70
    14
 71
     2
 72
     2
 73
     0
 90
        0
 40
-0.6
 41
-30.0
 62
     5
 63
     7
421
 16777215
 74
     1
 91
        4
 64
     7
 65
   257
 75
     7
175
     7
 42
1.0
 92
        8
 66
     7
 43
1.0
 76
     1
 77
     6
 78
     2
 67
     7
 79
     5
170
     0
171
     0
290
     0
174
     0
 93
        1
 44
0.0
173
     0
291
     1
 45
0.0
1001
ACAD
1000
AcDbSavedByObjectVersion
1070
     0
  0
VISUALSTYLE
  5
40
102
{ACAD_XDICTIONARY
360
326
102
}
102
{ACAD_REACTORS
330
29
102
}
330
29
100
AcDbVisualStyle
  2
OverhangOff
 70
    21
 71
     2
 72
     2
 73
     0
 90
        0
 40
-0.6
 41
-30.0
 62
     5
 63
     7
421
 16777215
 74
     1
 91
        4
 64
     7
 65
   257
 75
     1
175
     1
 42
1.0
 92
        9
 66
     7
 43
1.0
 76
     1
 77
     6
 78
     2
 67
     7
 79
     5
170
     0
171
     0
290
     0
174
     0
 93
        1
 44
0.0
173
     0
291
     1
 45
0.0
1001
ACAD
1000
AcDbSavedByObjectVersion
1070
     0
  0
VISUALSTYLE
  5
33
102
{ACAD_XDICTIONARY
360
30C
102
}
102
{ACAD_REACTORS
330
29
102
}
330
29
100
AcDbVisualStyle
  2
Realistic
 70
     8
 71
     2
 72
     3
 73
     0
 90
        2
 40
-0.6
 41
30.0
 62
     5
 63
     7
421
 16777215
 74
     0
 91
        0
 64
     7
 65
   257
 75
     1
175
     1
 42
1.0
 92
        8
 66
   257
 43
1.0
 76
     1
 77
     6
 78
     2
 67
     7
 79
     3
170
     0
171
     0
290
     0
174
     0
 93
       13
 44
0.0
173
     0
291
     0
 45
0.0
1001
ACAD
1000
AcDbSavedByObjectVersion
1070
     0
  0
VISUALSTYLE
  5
3E
102
{ACAD_XDICTIONARY
360
322
102
}
102
{ACAD_REACTORS
330
29
102
}
330
29
100
AcDbVisualStyle
  2
Shaded
 70
    27
 71
     2
 72
     2
 73
     1
 90
        2
 40
-0.6
 41
30.0
 62
     5
 63
     7
421
 16777215
 74
     0
 91
        4
 64
     7
 65
   257
 75
     1
175
     1
 42
1.0
 92
        8
 66
   257
 43
1.0
 76
     1
 77
     6
 78
     2
 67
     8
425
  7895160
 79
     3
170
     0
171
     0
290
     0
174
     0
 93
        5
 44
0.0
173
     0
291
     0
 45
0.0
1001
ACAD
1000
AcDbSavedByObjectVersion
1070
     0
  0
VISUALSTYLE
  5
3D
102
{ACAD_XDICTIONARY
360
320
102
}
102
{ACAD_REACTORS
330
29
102
}
330
29
100
AcDbVisualStyle
  2
Shaded with edges
 70
    26
 71
     2
 72
     2
 73
     1
 90
        2
 40
-0.6
 41
30.0
 62
     5
 63
     7
421
 16777215
 74
     1
 91
        2
 64
     7
 65
   257
 75
     2
175
     1
 42
1.0
 92
        8
 66
   257
 43
1.0
 76
     1
 77
     6
 78
     2
 67
     7
 79
     3
170
     0
171
     0
290
     0
174
     0
 93
        5
 44
0.0
173
     0
291
     0
 45
0.0
1001
ACAD
1000
AcDbSavedByObjectVersion
1070
     0
  0
VISUALSTYLE
  5
3A
102
{ACAD_XDICTIONARY
360
31A
102
}
102
{ACAD_REACTORS
330
29
102
}
330
29
100
AcDbVisualStyle
  2
Shades of Gray
 70
    23
 71
     2
 72
     2
 73
     3
 90
        0
 40
-0.6
 41
-30.0
 62
     5
 63
     7
421
 16777215
 74
     2
 91
        2
 64
     7
 65
     7
 75
     1
175
     1
 42
40.0
 92
        8
 66
     7
 43
1.0
 76
     1
 77
     6
 78
     2
 67
     7
 79
     3
170
     0
171
     0
290
     0
174
     0
 93
        1
 44
0.0
173
     0
291
     0
 45
0.0
1001
ACAD
1000
AcDbSavedByObjectVersion
1070
     0
  0
VISUALSTYLE
  5
3B
102
{ACAD_XDICTIONARY
360
31C
102
}
102
{ACAD_REACTORS
330
29
102
}
330
29
100
AcDbVisualStyle
  2
Sketchy
 70
    24
 71
     1
 72
     2
 73
     2
 90
        0
 40
-0.6
 41
-30.0
 62
     5
 63
     7
421
 16777215
 74
     2
 91
        2
 64
     7
 65
     7
 75
     1
175
     1
 42
40.0
 92
       11
 66
     7
 43
1.0
 76
     1
 77
     6
 78
     2
 67
     7
 79
     6
170
     0
171
     0
290
     0
174
     0
 93
        1
 44
0.0
173
     0
291
     0
 45
0.0
1001
ACAD
1000
AcDbSavedByObjectVersion
1070
     0
  0
VISUALSTYLE
  5
36
102
{ACAD_XDICTIONARY
360
312
102
}
102
{ACAD_REACTORS
330
29
102
}
330
29
100
AcDbVisualStyle
  2
Thicken
 70
    13
 71
     2
 72
     2
 73
     0
 90
        0
 40
-0.6
 41
-30.0
 62
     5
 63
     7
421
 16777215
 74
     1
 91
        4
 64
     7
 65
   257
 75
     1
175
     1
 42
1.0
 92
       12
 66
     7
 43
1.0
 76
     1
 77
     6
 78
     2
 67
     7
 79
     5
170
     0
171
     0
290
     0
174
     0
 93
        1
 44
0.0
173
     0
291
     1
 45
0.0
1001
ACAD
1000
AcDbSavedByObjectVersion
1070
     0
  0
VISUALSTYLE
  5
30
102
{ACAD_XDICTIONARY
360
306
102
}
102
{ACAD_REACTORS
330
29
102
}
330
29
100
AcDbVisualStyle
  2
Wireframe
 70
     5
 71
     0
 72
     2
 73
     0
 90
        0
 40
-0.6
 41
-30.0
 62
     5
 63
     7
421
 16777215
 74
     1
 91
        4
 64
     7
 65
   257
 75
     1
175
     1
 42
1.0
 92
        0
 66
   257
 43
1.0
 76
     1
 77
     6
 78
     2
 67
     7
 79
     3
170
     0
171
     0
290
     0
174
     0
 93
        1
 44
0.0
173
     0
291
     0
 45
0.0
1001
ACAD
1000
AcDbSavedByObjectVersion
1070
     0
  0
VISUALSTYLE
  5
3C
102
{ACAD_XDICTIONARY
360
31E
102
}
102
{ACAD_REACTORS
330
29
102
}
330
29
100
AcDbVisualStyle
  2
X-Ray
 70
    25
 71
     2
 72
     2
 73
     1
 90
        1
 40
0.5
 41
-30.0
 62
     5
 63
     7
421
 16777215
 74
     1
 91
        0
 64
     7
 65
   257
 75
     1
175
     1
 42
1.0
 92
        8
 66
     7
 43
1.0
 76
     1
 77
     6
 78
     2
 67
     7
 79
     3
170
     0
171
     0
290
     0
174
     0
 93
       13
 44
0.0
173
     0
291
     0
 45
0.0
1001
ACAD
1000
AcDbSavedByObjectVersion
1070
     0
  0
DICTIONARYVAR
  5
80
102
{ACAD_REACTORS
330
7B
102
}
330
7B
100
DictionaryVariables
280
     0
  1
1:1
  0
DICTIONARYVAR
  5
7D
102
{ACAD_REACTORS
330
7B
102
}
330
7B
100
DictionaryVariables
280
     0
  1
STANDARD
  0
DICTIONARYVAR
  5
7C
102
{ACAD_REACTORS
330
7B
102
}
330
7B
100
DictionaryVariables
280
     0
  1
STANDARD
  0
DICTIONARYVAR
  5
7E
102
{ACAD_REACTORS
330
7B
102
}
330
7B
100
DictionaryVariables
280
     0
  1
Imperial24
  0
DICTIONARYVAR
  5
7F
102
{ACAD_REACTORS
330
7B
102
}
330
7B
100
DictionaryVariables
280
     0
  1
Imperial24
  0
DICTIONARYVAR
  5
81
102
{ACAD_REACTORS
330
7B
102
}
330
7B
100
DictionaryVariables
280
     0
  1
2
  0
XRECORD
  5
2EF
102
{ACAD_REACTORS
330
2EB
102
}
330
2EB
100
AcDbXrecord
280
     1
  1
BUILDING_ID
  1
22-07-08 Ardex Mebrane 2023 Revit File
  1
FLOOR_ID
  1
564635
  0
XRECORD
  5
2ED
102
{ACAD_REACTORS
330
2EB
102
}
330
2EB
100
AcDbXrecord
280
     1
  1
-2000280
  1
Title Blocks
  1
-2000300
  1
Text Notes
  1
-2002000
  1
Detail Items
  1
-2005022
  1
Multi-Category Tags
  0
XRECORD
  5
2EE
102
{ACAD_REACTORS
330
2EB
102
}
330
2EB
100
AcDbXrecord
280
     1
  1
335604
  1
(ARDEX) Lines 01 Grey
  1
335610
  1
(ARDEX) Lines 03
  1
342012
  1
(ARDEX) Lines 05 Dashed
  1
352413
  1
(ARDEX) Lines 08 Dashed
  1
411603
  1
Light Lines
  0
XRECORD
  5
2EC
102
{ACAD_REACTORS
330
2EB
102
}
330
2EB
100
AcDbXrecord
280
     1
  1
333213
  1
(ARDEX) Landscape Title block : (ARDEX) Landscape Title block
  1
343954
  1
Text : (ARDEX) 2mm Text
  1
372253
  1
(ARDEX) Tag Multi Category : Detail components
  1
372261
  1
(ARDEX) Tag Multi Category : Comments
  1
502649
  1
(ARDEX) Plywood : 18mm
  1
537081
  1
(ARDEX) Lining - Various : Adhesive
  1
563342
  1
(ARDEX) Lining - Various : Polyiso HD Cover Board
  1
569180
  1
(ARDEX) Lines : Membrane
  1
569184
  1
(ARDEX) Lines : Barrier
  1
577125
  1
(ARDEX) Lining - Various : Plate
  1
595603
  1
(ARDEX) Lining - Various : Polyiso Board 40MM
  1
598122
  1
(ARDEX) Fixing Screw CS : (ARDEX) Fixing Screw CS twin
  0
DICTIONARY
  5
32F
330
6B
100
AcDbDictionary
280
     1
281
     1
  3
ACAD_XREC_ROUNDTRIP
360
330
  0
DICTIONARY
  5
1A
330
19
100
AcDbDictionary
280
     1
281
     1
  3
BUMPTILE
360
1C
  3
DIFFUSETILE
360
1B
  3
OPACITYTILE
360
1F
  3
REFLECTIONTILE
360
1E
  3
REFRACTIONTILE
360
20
  3
SPECULARTILE
360
1D
  0
DICTIONARY
  5
12
330
11
100
AcDbDictionary
280
     1
281
     1
  3
BUMPTILE
360
14
  3
DIFFUSETILE
360
13
  3
OPACITYTILE
360
17
  3
REFLECTIONTILE
360
16
  3
REFRACTIONTILE
360
18
  3
SPECULARTILE
360
15
  0
DICTIONARY
  5
22
330
21
100
AcDbDictionary
280
     1
281
     1
  3
BUMPTILE
360
24
  3
DIFFUSETILE
360
23
  3
OPACITYTILE
360
27
  3
REFLECTIONTILE
360
26
  3
REFRACTIONTILE
360
28
  3
SPECULARTILE
360
25
  0
DICTIONARY
  5
32B
330
67
100
AcDbDictionary
280
     1
281
     1
  3
ACAD_XREC_ROUNDTRIP
360
32C
  0
DICTIONARY
  5
32D
330
69
100
AcDbDictionary
280
     1
281
     1
  3
ACAD_XREC_ROUNDTRIP
360
32E
  0
DICTIONARY
  5
2F4
330
65
100
AcDbDictionary
280
     1
281
     1
  3
ACAD_ROUNDTRIP_2008_TABLESTYLE_CELLSTYLEMAP
360
2F5
  0
DICTIONARY
  5
304
330
2F
100
AcDbDictionary
280
     1
281
     1
  3
ACAD_XREC_ROUNDTRIP
360
305
  0
DICTIONARY
  5
302
330
2E
100
AcDbDictionary
280
     1
281
     1
  3
ACAD_XREC_ROUNDTRIP
360
303
  0
DICTIONARY
  5
310
330
35
100
AcDbDictionary
280
     1
281
     1
  3
ACAD_XREC_ROUNDTRIP
360
311
  0
DICTIONARY
  5
318
330
39
100
AcDbDictionary
280
     1
281
     1
  3
ACAD_XREC_ROUNDTRIP
360
319
  0
DICTIONARY
  5
30A
330
32
100
AcDbDictionary
280
     1
281
     1
  3
ACAD_XREC_ROUNDTRIP
360
30B
  0
DICTIONARY
  5
30E
330
34
100
AcDbDictionary
280
     1
281
     1
  3
ACAD_XREC_ROUNDTRIP
360
30F
  0
DICTIONARY
  5
328
330
41
100
AcDbDictionary
280
     1
281
     1
  3
ACAD_XREC_ROUNDTRIP
360
329
  0
DICTIONARY
  5
316
330
38
100
AcDbDictionary
280
     1
281
     1
  3
ACAD_XREC_ROUNDTRIP
360
317
  0
DICTIONARY
  5
2FA
330
2A
100
AcDbDictionary
280
     1
281
     1
  3
ACAD_XREC_ROUNDTRIP
360
2FB
  0
DICTIONARY
  5
2FC
330
2B
100
AcDbDictionary
280
     1
281
     1
  3
ACAD_XREC_ROUNDTRIP
360
2FD
  0
DICTIONARY
  5
2FE
330
2C
100
AcDbDictionary
280
     1
281
     1
  3
ACAD_XREC_ROUNDTRIP
360
2FF
  0
DICTIONARY
  5
300
330
2D
100
AcDbDictionary
280
     1
281
     1
  3
ACAD_XREC_ROUNDTRIP
360
301
  0
DICTIONARY
  5
308
330
31
100
AcDbDictionary
280
     1
281
     1
  3
ACAD_XREC_ROUNDTRIP
360
309
  0
DICTIONARY
  5
324
330
3F
100
AcDbDictionary
280
     1
281
     1
  3
ACAD_XREC_ROUNDTRIP
360
325
  0
DICTIONARY
  5
314
330
37
100
AcDbDictionary
280
     1
281
     1
  3
ACAD_XREC_ROUNDTRIP
360
315
  0
DICTIONARY
  5
326
330
40
100
AcDbDictionary
280
     1
281
     1
  3
ACAD_XREC_ROUNDTRIP
360
327
  0
DICTIONARY
  5
30C
330
33
100
AcDbDictionary
280
     1
281
     1
  3
ACAD_XREC_ROUNDTRIP
360
30D
  0
DICTIONARY
  5
322
330
3E
100
AcDbDictionary
280
     1
281
     1
  3
ACAD_XREC_ROUNDTRIP
360
323
  0
DICTIONARY
  5
320
330
3D
100
AcDbDictionary
280
     1
281
     1
  3
ACAD_XREC_ROUNDTRIP
360
321
  0
DICTIONARY
  5
31A
330
3A
100
AcDbDictionary
280
     1
281
     1
  3
ACAD_XREC_ROUNDTRIP
360
31B
  0
DICTIONARY
  5
31C
330
3B
100
AcDbDictionary
280
     1
281
     1
  3
ACAD_XREC_ROUNDTRIP
360
31D
  0
DICTIONARY
  5
312
330
36
100
AcDbDictionary
280
     1
281
     1
  3
ACAD_XREC_ROUNDTRIP
360
313
  0
DICTIONARY
  5
306
330
30
100
AcDbDictionary
280
     1
281
     1
  3
ACAD_XREC_ROUNDTRIP
360
307
  0
DICTIONARY
  5
31E
330
3C
100
AcDbDictionary
280
     1
281
     1
  3
ACAD_XREC_ROUNDTRIP
360
31F
  0
XRECORD
  5
330
102
{ACAD_REACTORS
330
32F
102
}
330
32F
100
AcDbXrecord
280
     1
102
DISPLAYNAME
  1
Imperial24
102
FLAGS
 90
        0
  0
XRECORD
  5
1C
102
{ACAD_REACTORS
330
1A
102
}
330
1A
100
AcDbXrecord
280
     1
270
     1
271
     1
  0
XRECORD
  5
1B
102
{ACAD_REACTORS
330
1A
102
}
330
1A
100
AcDbXrecord
280
     1
270
     1
271
     1
  0
XRECORD
  5
1F
102
{ACAD_REACTORS
330
1A
102
}
330
1A
100
AcDbXrecord
280
     1
270
     1
271
     1
  0
XRECORD
  5
1E
102
{ACAD_REACTORS
330
1A
102
}
330
1A
100
AcDbXrecord
280
     1
270
     1
271
     1
  0
XRECORD
  5
20
102
{ACAD_REACTORS
330
1A
102
}
330
1A
100
AcDbXrecord
280
     1
270
     1
271
     1
  0
XRECORD
  5
1D
102
{ACAD_REACTORS
330
1A
102
}
330
1A
100
AcDbXrecord
280
     1
270
     1
271
     1
  0
XRECORD
  5
14
102
{ACAD_REACTORS
330
12
102
}
330
12
100
AcDbXrecord
280
     1
270
     1
271
     1
  0
XRECORD
  5
13
102
{ACAD_REACTORS
330
12
102
}
330
12
100
AcDbXrecord
280
     1
270
     1
271
     1
  0
XRECORD
  5
17
102
{ACAD_REACTORS
330
12
102
}
330
12
100
AcDbXrecord
280
     1
270
     1
271
     1
  0
XRECORD
  5
16
102
{ACAD_REACTORS
330
12
102
}
330
12
100
AcDbXrecord
280
     1
270
     1
271
     1
  0
XRECORD
  5
18
102
{ACAD_REACTORS
330
12
102
}
330
12
100
AcDbXrecord
280
     1
270
     1
271
     1
  0
XRECORD
  5
15
102
{ACAD_REACTORS
330
12
102
}
330
12
100
AcDbXrecord
280
     1
270
     1
271
     1
  0
XRECORD
  5
24
102
{ACAD_REACTORS
330
22
102
}
330
22
100
AcDbXrecord
280
     1
270
     1
271
     1
  0
XRECORD
  5
23
102
{ACAD_REACTORS
330
22
102
}
330
22
100
AcDbXrecord
280
     1
270
     1
271
     1
  0
XRECORD
  5
27
102
{ACAD_REACTORS
330
22
102
}
330
22
100
AcDbXrecord
280
     1
270
     1
271
     1
  0
XRECORD
  5
26
102
{ACAD_REACTORS
330
22
102
}
330
22
100
AcDbXrecord
280
     1
270
     1
271
     1
  0
XRECORD
  5
28
102
{ACAD_REACTORS
330
22
102
}
330
22
100
AcDbXrecord
280
     1
270
     1
271
     1
  0
XRECORD
  5
25
102
{ACAD_REACTORS
330
22
102
}
330
22
100
AcDbXrecord
280
     1
270
     1
271
     1
  0
XRECORD
  5
32C
102
{ACAD_REACTORS
330
32B
102
}
330
32B
100
AcDbXrecord
280
     1
102
ACAD_ROUNDTRIP_2012_MLEADER_STYLE
298
     1
  0
XRECORD
  5
32E
102
{ACAD_REACTORS
330
32D
102
}
330
32D
100
AcDbXrecord
280
     1
102
DISPLAYNAME
  1
Imperial24
102
FLAGS
 90
        0
  0
CELLSTYLEMAP
  5
2F5
102
{ACAD_REACTORS
330
2F4
102
}
330
2F4
100
AcDbCellStyleMap
 90
        3
300
CELLSTYLE
  1
TABLEFORMAT_BEGIN
 90
        5
170
     1
 91
        0
 92
    32768
 62
   257
 93
        1
300
CONTENTFORMAT
  1
CONTENTFORMAT_BEGIN
 90
        0
 91
        0
 92
      512
 93
        0
300

 40
0.0
140
1.0
 94
        5
 62
     0
340
55
144
0.25
309
CONTENTFORMAT_END
171
     0
 94
        0
309
TABLEFORMAT_END
  1
CELLSTYLE_BEGIN
 90
        1
 91
        1
300
_TITLE
309
CELLSTYLE_END
300
CELLSTYLE
  1
TABLEFORMAT_BEGIN
 90
        5
170
     1
 91
        0
 92
        0
 62
   257
 93
        1
300
CONTENTFORMAT
  1
CONTENTFORMAT_BEGIN
 90
        0
 91
        0
 92
      512
 93
        0
300

 40
0.0
140
1.0
 94
        5
 62
     0
340
55
144
0.18
309
CONTENTFORMAT_END
171
     0
 94
        0
309
TABLEFORMAT_END
  1
CELLSTYLE_BEGIN
 90
        2
 91
        1
300
_HEADER
309
CELLSTYLE_END
300
CELLSTYLE
  1
TABLEFORMAT_BEGIN
 90
        5
170
     1
 91
        0
 92
        0
 62
   257
 93
        1
300
CONTENTFORMAT
  1
CONTENTFORMAT_BEGIN
 90
        0
 91
        0
 92
      512
 93
        0
300

 40
0.0
140
1.0
 94
        2
 62
     0
340
55
144
0.18
309
CONTENTFORMAT_END
171
     0
 94
        0
309
TABLEFORMAT_END
  1
CELLSTYLE_BEGIN
 90
        3
 91
        2
300
_DATA
309
CELLSTYLE_END
  0
XRECORD
  5
305
102
{ACAD_REACTORS
330
304
102
}
330
304
100
AcDbXrecord
280
     1
102
RTVSPost2010Prop28
280
     1
102
RTVSPost2010PropOp28
 70
     1
102
RTVSPost2010Prop29
280
     1
102
RTVSPost2010PropOp29
 70
     1
102
RTVSPost2010Prop30
280
     0
102
RTVSPost2010PropOp30
 70
     1
102
RTVSPost2010Prop31
280
     0
102
RTVSPost2010PropOp31
 70
     1
102
RTVSPost2010Prop32
280
     0
102
RTVSPost2010PropOp32
 70
     1
102
RTVSPost2010Prop33
280
     0
102
RTVSPost2010PropOp33
 70
     1
102
RTVSPost2010Prop34
280
     0
102
RTVSPost2010PropOp34
 70
     1
102
RTVSPost2010Prop35
280
     0
102
RTVSPost2010PropOp35
 70
     1
102
RTVSPost2010Prop36
280
     0
102
RTVSPost2010PropOp36
 70
     1
102
RTVSPost2010Prop37
 90
       50
102
RTVSPost2010PropOp37
 70
     1
102
RTVSPost2010Prop38
140
0.0
102
RTVSPost2010PropOp38
 70
     1
102
RTVSPost2010Prop39
140
1.0
102
RTVSPost2010PropOp39
 70
     1
102
RTVSPost2010Prop40
 90
        0
102
RTVSPost2010PropOp40
 70
     1
102
RTVSPost2010Prop41ColorIndex
 90
       18
102
RTVSPost2010Prop41ColorRGB
 90
        0
102
RTVSPost2010PropOp41
 70
     1
102
RTVSPost2010Prop42
 90
       50
102
RTVSPost2010PropOp42
 70
     1
102
RTVSPost2010Prop43
 90
        3
102
RTVSPost2010PropOp43
 70
     1
102
RTVSPost2010Prop44ColorIndex
 90
        5
102
RTVSPost2010Prop44ColorRGB
 90
      255
102
RTVSPost2010PropOp44
 70
     1
102
RTVSPost2010Prop45
280
     0
102
RTVSPost2010PropOp45
 70
     1
102
RTVSPost2010Prop46
 90
       50
102
RTVSPost2010PropOp46
 70
     1
102
RTVSPost2010Prop47
 90
       50
102
RTVSPost2010PropOp47
 70
     1
102
RTVSPost2010Prop48
 90
       50
102
RTVSPost2010PropOp48
 70
     1
102
RTVSPost2010Prop49
280
     0
102
RTVSPost2010PropOp49
 70
     1
102
RTVSPost2010Prop50
 90
       50
102
RTVSPost2010PropOp50
 70
     1
102
RTVSPost2010Prop51ColorIndex
 90
      256
102
RTVSPost2010Prop51ColorRGB
 90
-16777216
102
RTVSPost2010PropOp51
 70
     0
102
RTVSPost2010Prop52
140
1.0
102
RTVSPost2010PropOp52
 70
     0
102
RTVSPost2010Prop53
 90
        2
102
RTVSPost2010PropOp53
 70
     1
102
RTVSPost2010Prop54
  1
strokes_ogs.tif
102
RTVSPost2010PropOp54
 70
     1
102
RTVSPost2010Prop55
280
     0
102
RTVSPost2010PropOp55
 70
     1
102
RTVSPost2010Prop56
140
1.0
102
RTVSPost2010PropOp56
 70
     1
102
RTVSPost2010Prop57
140
1.0
102
RTVSPost2010PropOp57
 70
     1
102
RTVSPropertyOp0
 70
     1
102
RTVSPropertyOp1
 70
     1
102
RTVSPropertyOp2
 70
     1
102
RTVSPropertyOp3
 70
     1
102
RTVSPropertyOp4
 70
     1
102
RTVSPropertyOp5
 70
     1
102
RTVSPropertyOp6
 70
     1
102
RTVSPropertyOp7
 70
     1
102
RTVSPropertyOp8
 70
     1
102
RTVSPropertyOp9
 70
     1
102
RTVSPropertyOp10
 70
     1
102
RTVSPropertyOp11
 70
     1
102
RTVSPropertyOp12
 70
     1
102
RTVSPropertyOp13
 70
     1
102
RTVSPropertyOp14
 70
     1
102
RTVSPropertyOp15
 70
     1
102
RTVSPropertyOp16
 70
     1
102
RTVSPropertyOp17
 70
     1
102
RTVSPropertyOp18
 70
     1
102
RTVSPropertyOp19
 70
     1
102
RTVSPropertyOp20
 70
     1
102
RTVSPropertyOp21
 70
     1
102
RTVSPropertyOp22
 70
     1
102
RTVSPropertyOp23
 70
     1
102
RTVSPropertyOp24
 70
     1
102
RTVSPropertyOp25
 70
     1
102
RTVSPropertyOp26
 70
     1
102
RTVSPropertyOp27
 70
     1
102
RTVSPropertyOp28
 70
     1
102
RTVSPropertyOp29
 70
     1
102
RTVSPropertyOp30
 70
     1
102
RTVSPropertyOp31
 70
     1
102
RTVSPropertyOp32
 70
     1
102
RTVSPropertyOp33
 70
     1
102
RTVSPropertyOp34
 70
     1
102
RTVSPropertyOp35
 70
     1
102
RTVSPropertyOp36
 70
     1
102
RTVSPropertyOp37
 70
     1
102
RTVSPropertyOp38
 70
     1
102
RTVSPropertyOp39
 70
     1
102
RTVSPropertyOp40
 70
     1
102
RTVSPropertyOp41
 70
     1
102
RTVSPropertyOp42
 70
     1
102
RTVSPropertyOp43
 70
     1
102
RTVSPropertyOp44
 70
     1
102
RTVSPropertyOp45
 70
     1
102
RTVSPropertyOp46
 70
     1
102
RTVSPropertyOp47
 70
     1
102
RTVSPropertyOp48
 70
     1
102
RTVSPropertyOp49
 70
     1
102
RTVSPropertyOp50
 70
     1
102
RTVSPropertyOp51
 70
     0
102
RTVSPropertyOp52
 70
     0
102
RTVSPropertyOp53
 70
     1
102
RTVSPropertyOp54
 70
     1
102
RTVSPropertyOp55
 70
     1
102
RTVSPropertyOp56
 70
     1
102
RTVSPropertyOp57
 70
     1
102
RTVSPropertyOp58
 70
     1
102
RTVSPropertyOp59
 70
     1
102
RTVSPropertyOp60
 70
     1
102
RTVSPropertyOp61
 70
     1
102
RTVSPropertyOp62
 70
     1
  0
XRECORD
  5
303
102
{ACAD_REACTORS
330
302
102
}
330
302
100
AcDbXrecord
280
     1
102
RTVSPost2010Prop28
280
     0
102
RTVSPost2010PropOp28
 70
     1
102
RTVSPost2010Prop29
280
     1
102
RTVSPost2010PropOp29
 70
     1
102
RTVSPost2010Prop30
280
     1
102
RTVSPost2010PropOp30
 70
     1
102
RTVSPost2010Prop31
280
     0
102
RTVSPost2010PropOp31
 70
     1
102
RTVSPost2010Prop32
280
     0
102
RTVSPost2010PropOp32
 70
     1
102
RTVSPost2010Prop33
280
     0
102
RTVSPost2010PropOp33
 70
     1
102
RTVSPost2010Prop34
280
     0
102
RTVSPost2010PropOp34
 70
     1
102
RTVSPost2010Prop35
280
     0
102
RTVSPost2010PropOp35
 70
     1
102
RTVSPost2010Prop36
280
     0
102
RTVSPost2010PropOp36
 70
     1
102
RTVSPost2010Prop37
 90
       50
102
RTVSPost2010PropOp37
 70
     1
102
RTVSPost2010Prop38
140
0.0
102
RTVSPost2010PropOp38
 70
     1
102
RTVSPost2010Prop39
140
1.0
102
RTVSPost2010PropOp39
 70
     1
102
RTVSPost2010Prop40
 90
        0
102
RTVSPost2010PropOp40
 70
     1
102
RTVSPost2010Prop41ColorIndex
 90
       18
102
RTVSPost2010Prop41ColorRGB
 90
        0
102
RTVSPost2010PropOp41
 70
     1
102
RTVSPost2010Prop42
 90
       50
102
RTVSPost2010PropOp42
 70
     1
102
RTVSPost2010Prop43
 90
        3
102
RTVSPost2010PropOp43
 70
     1
102
RTVSPost2010Prop44ColorIndex
 90
        5
102
RTVSPost2010Prop44ColorRGB
 90
      255
102
RTVSPost2010PropOp44
 70
     1
102
RTVSPost2010Prop45
280
     0
102
RTVSPost2010PropOp45
 70
     1
102
RTVSPost2010Prop46
 90
       50
102
RTVSPost2010PropOp46
 70
     1
102
RTVSPost2010Prop47
 90
       50
102
RTVSPost2010PropOp47
 70
     1
102
RTVSPost2010Prop48
 90
       50
102
RTVSPost2010PropOp48
 70
     1
102
RTVSPost2010Prop49
280
     0
102
RTVSPost2010PropOp49
 70
     1
102
RTVSPost2010Prop50
 90
       50
102
RTVSPost2010PropOp50
 70
     1
102
RTVSPost2010Prop51ColorIndex
 90
      256
102
RTVSPost2010Prop51ColorRGB
 90
-16777216
102
RTVSPost2010PropOp51
 70
     0
102
RTVSPost2010Prop52
140
1.0
102
RTVSPost2010PropOp52
 70
     0
102
RTVSPost2010Prop53
 90
        2
102
RTVSPost2010PropOp53
 70
     1
102
RTVSPost2010Prop54
  1
strokes_ogs.tif
102
RTVSPost2010PropOp54
 70
     1
102
RTVSPost2010Prop55
280
     0
102
RTVSPost2010PropOp55
 70
     1
102
RTVSPost2010Prop56
140
1.0
102
RTVSPost2010PropOp56
 70
     1
102
RTVSPost2010Prop57
140
1.0
102
RTVSPost2010PropOp57
 70
     1
102
RTVSPropertyOp0
 70
     1
102
RTVSPropertyOp1
 70
     1
102
RTVSPropertyOp2
 70
     1
102
RTVSPropertyOp3
 70
     1
102
RTVSPropertyOp4
 70
     1
102
RTVSPropertyOp5
 70
     1
102
RTVSPropertyOp6
 70
     1
102
RTVSPropertyOp7
 70
     1
102
RTVSPropertyOp8
 70
     1
102
RTVSPropertyOp9
 70
     1
102
RTVSPropertyOp10
 70
     1
102
RTVSPropertyOp11
 70
     1
102
RTVSPropertyOp12
 70
     1
102
RTVSPropertyOp13
 70
     1
102
RTVSPropertyOp14
 70
     1
102
RTVSPropertyOp15
 70
     1
102
RTVSPropertyOp16
 70
     1
102
RTVSPropertyOp17
 70
     1
102
RTVSPropertyOp18
 70
     1
102
RTVSPropertyOp19
 70
     1
102
RTVSPropertyOp20
 70
     1
102
RTVSPropertyOp21
 70
     1
102
RTVSPropertyOp22
 70
     1
102
RTVSPropertyOp23
 70
     1
102
RTVSPropertyOp24
 70
     1
102
RTVSPropertyOp25
 70
     1
102
RTVSPropertyOp26
 70
     1
102
RTVSPropertyOp27
 70
     1
102
RTVSPropertyOp28
 70
     1
102
RTVSPropertyOp29
 70
     1
102
RTVSPropertyOp30
 70
     1
102
RTVSPropertyOp31
 70
     1
102
RTVSPropertyOp32
 70
     1
102
RTVSPropertyOp33
 70
     1
102
RTVSPropertyOp34
 70
     1
102
RTVSPropertyOp35
 70
     1
102
RTVSPropertyOp36
 70
     1
102
RTVSPropertyOp37
 70
     1
102
RTVSPropertyOp38
 70
     1
102
RTVSPropertyOp39
 70
     1
102
RTVSPropertyOp40
 70
     1
102
RTVSPropertyOp41
 70
     1
102
RTVSPropertyOp42
 70
     1
102
RTVSPropertyOp43
 70
     1
102
RTVSPropertyOp44
 70
     1
102
RTVSPropertyOp45
 70
     1
102
RTVSPropertyOp46
 70
     1
102
RTVSPropertyOp47
 70
     1
102
RTVSPropertyOp48
 70
     1
102
RTVSPropertyOp49
 70
     1
102
RTVSPropertyOp50
 70
     1
102
RTVSPropertyOp51
 70
     0
102
RTVSPropertyOp52
 70
     0
102
RTVSPropertyOp53
 70
     1
102
RTVSPropertyOp54
 70
     1
102
RTVSPropertyOp55
 70
     1
102
RTVSPropertyOp56
 70
     1
102
RTVSPropertyOp57
 70
     1
102
RTVSPropertyOp58
 70
     1
102
RTVSPropertyOp59
 70
     1
102
RTVSPropertyOp60
 70
     1
102
RTVSPropertyOp61
 70
     1
102
RTVSPropertyOp62
 70
     1
  0
XRECORD
  5
311
102
{ACAD_REACTORS
330
310
102
}
330
310
100
AcDbXrecord
280
     1
102
RTVSPost2010Prop28
280
     0
102
RTVSPost2010PropOp28
 70
     1
102
RTVSPost2010Prop29
280
     1
102
RTVSPost2010PropOp29
 70
     1
102
RTVSPost2010Prop30
280
     1
102
RTVSPost2010PropOp30
 70
     1
102
RTVSPost2010Prop31
280
     0
102
RTVSPost2010PropOp31
 70
     1
102
RTVSPost2010Prop32
280
     0
102
RTVSPost2010PropOp32
 70
     1
102
RTVSPost2010Prop33
280
     0
102
RTVSPost2010PropOp33
 70
     1
102
RTVSPost2010Prop34
280
     0
102
RTVSPost2010PropOp34
 70
     1
102
RTVSPost2010Prop35
280
     0
102
RTVSPost2010PropOp35
 70
     1
102
RTVSPost2010Prop36
280
     0
102
RTVSPost2010PropOp36
 70
     1
102
RTVSPost2010Prop37
 90
       50
102
RTVSPost2010PropOp37
 70
     1
102
RTVSPost2010Prop38
140
0.0
102
RTVSPost2010PropOp38
 70
     1
102
RTVSPost2010Prop39
140
1.0
102
RTVSPost2010PropOp39
 70
     1
102
RTVSPost2010Prop40
 90
        0
102
RTVSPost2010PropOp40
 70
     1
102
RTVSPost2010Prop41ColorIndex
 90
       18
102
RTVSPost2010Prop41ColorRGB
 90
        0
102
RTVSPost2010PropOp41
 70
     1
102
RTVSPost2010Prop42
 90
       50
102
RTVSPost2010PropOp42
 70
     1
102
RTVSPost2010Prop43
 90
        3
102
RTVSPost2010PropOp43
 70
     1
102
RTVSPost2010Prop44ColorIndex
 90
        5
102
RTVSPost2010Prop44ColorRGB
 90
      255
102
RTVSPost2010PropOp44
 70
     1
102
RTVSPost2010Prop45
280
     0
102
RTVSPost2010PropOp45
 70
     1
102
RTVSPost2010Prop46
 90
       50
102
RTVSPost2010PropOp46
 70
     1
102
RTVSPost2010Prop47
 90
       50
102
RTVSPost2010PropOp47
 70
     1
102
RTVSPost2010Prop48
 90
       50
102
RTVSPost2010PropOp48
 70
     1
102
RTVSPost2010Prop49
280
     0
102
RTVSPost2010PropOp49
 70
     1
102
RTVSPost2010Prop50
 90
       50
102
RTVSPost2010PropOp50
 70
     1
102
RTVSPost2010Prop51ColorIndex
 90
      256
102
RTVSPost2010Prop51ColorRGB
 90
-16777216
102
RTVSPost2010PropOp51
 70
     0
102
RTVSPost2010Prop52
140
1.0
102
RTVSPost2010PropOp52
 70
     0
102
RTVSPost2010Prop53
 90
        2
102
RTVSPost2010PropOp53
 70
     1
102
RTVSPost2010Prop54
  1
strokes_ogs.tif
102
RTVSPost2010PropOp54
 70
     1
102
RTVSPost2010Prop55
280
     0
102
RTVSPost2010PropOp55
 70
     1
102
RTVSPost2010Prop56
140
1.0
102
RTVSPost2010PropOp56
 70
     1
102
RTVSPost2010Prop57
140
1.0
102
RTVSPost2010PropOp57
 70
     1
102
RTVSPropertyOp0
 70
     1
102
RTVSPropertyOp1
 70
     1
102
RTVSPropertyOp2
 70
     1
102
RTVSPropertyOp3
 70
     1
102
RTVSPropertyOp4
 70
     1
102
RTVSPropertyOp5
 70
     1
102
RTVSPropertyOp6
 70
     1
102
RTVSPropertyOp7
 70
     1
102
RTVSPropertyOp8
 70
     1
102
RTVSPropertyOp9
 70
     1
102
RTVSPropertyOp10
 70
     1
102
RTVSPropertyOp11
 70
     1
102
RTVSPropertyOp12
 70
     1
102
RTVSPropertyOp13
 70
     1
102
RTVSPropertyOp14
 70
     1
102
RTVSPropertyOp15
 70
     1
102
RTVSPropertyOp16
 70
     1
102
RTVSPropertyOp17
 70
     1
102
RTVSPropertyOp18
 70
     1
102
RTVSPropertyOp19
 70
     1
102
RTVSPropertyOp20
 70
     1
102
RTVSPropertyOp21
 70
     1
102
RTVSPropertyOp22
 70
     1
102
RTVSPropertyOp23
 70
     1
102
RTVSPropertyOp24
 70
     1
102
RTVSPropertyOp25
 70
     1
102
RTVSPropertyOp26
 70
     1
102
RTVSPropertyOp27
 70
     1
102
RTVSPropertyOp28
 70
     1
102
RTVSPropertyOp29
 70
     1
102
RTVSPropertyOp30
 70
     1
102
RTVSPropertyOp31
 70
     1
102
RTVSPropertyOp32
 70
     1
102
RTVSPropertyOp33
 70
     1
102
RTVSPropertyOp34
 70
     1
102
RTVSPropertyOp35
 70
     1
102
RTVSPropertyOp36
 70
     1
102
RTVSPropertyOp37
 70
     1
102
RTVSPropertyOp38
 70
     1
102
RTVSPropertyOp39
 70
     1
102
RTVSPropertyOp40
 70
     1
102
RTVSPropertyOp41
 70
     1
102
RTVSPropertyOp42
 70
     1
102
RTVSPropertyOp43
 70
     1
102
RTVSPropertyOp44
 70
     1
102
RTVSPropertyOp45
 70
     1
102
RTVSPropertyOp46
 70
     1
102
RTVSPropertyOp47
 70
     1
102
RTVSPropertyOp48
 70
     1
102
RTVSPropertyOp49
 70
     1
102
RTVSPropertyOp50
 70
     1
102
RTVSPropertyOp51
 70
     0
102
RTVSPropertyOp52
 70
     0
102
RTVSPropertyOp53
 70
     1
102
RTVSPropertyOp54
 70
     1
102
RTVSPropertyOp55
 70
     1
102
RTVSPropertyOp56
 70
     1
102
RTVSPropertyOp57
 70
     1
102
RTVSPropertyOp58
 70
     1
102
RTVSPropertyOp59
 70
     1
102
RTVSPropertyOp60
 70
     1
102
RTVSPropertyOp61
 70
     1
102
RTVSPropertyOp62
 70
     1
  0
XRECORD
  5
319
102
{ACAD_REACTORS
330
318
102
}
330
318
100
AcDbXrecord
280
     1
102
RTVSPost2010Prop28
280
     0
102
RTVSPost2010PropOp28
 70
     1
102
RTVSPost2010Prop29
280
     1
102
RTVSPost2010PropOp29
 70
     1
102
RTVSPost2010Prop30
280
     1
102
RTVSPost2010PropOp30
 70
     1
102
RTVSPost2010Prop31
280
     0
102
RTVSPost2010PropOp31
 70
     1
102
RTVSPost2010Prop32
280
     0
102
RTVSPost2010PropOp32
 70
     1
102
RTVSPost2010Prop33
280
     0
102
RTVSPost2010PropOp33
 70
     1
102
RTVSPost2010Prop34
280
     0
102
RTVSPost2010PropOp34
 70
     1
102
RTVSPost2010Prop35
280
     0
102
RTVSPost2010PropOp35
 70
     1
102
RTVSPost2010Prop36
280
     0
102
RTVSPost2010PropOp36
 70
     1
102
RTVSPost2010Prop37
 90
       50
102
RTVSPost2010PropOp37
 70
     1
102
RTVSPost2010Prop38
140
0.0
102
RTVSPost2010PropOp38
 70
     1
102
RTVSPost2010Prop39
140
1.0
102
RTVSPost2010PropOp39
 70
     1
102
RTVSPost2010Prop40
 90
        0
102
RTVSPost2010PropOp40
 70
     1
102
RTVSPost2010Prop41ColorIndex
 90
       18
102
RTVSPost2010Prop41ColorRGB
 90
        0
102
RTVSPost2010PropOp41
 70
     1
102
RTVSPost2010Prop42
 90
       50
102
RTVSPost2010PropOp42
 70
     1
102
RTVSPost2010Prop43
 90
        3
102
RTVSPost2010PropOp43
 70
     1
102
RTVSPost2010Prop44ColorIndex
 90
        5
102
RTVSPost2010Prop44ColorRGB
 90
      255
102
RTVSPost2010PropOp44
 70
     1
102
RTVSPost2010Prop45
280
     0
102
RTVSPost2010PropOp45
 70
     1
102
RTVSPost2010Prop46
 90
       50
102
RTVSPost2010PropOp46
 70
     1
102
RTVSPost2010Prop47
 90
       50
102
RTVSPost2010PropOp47
 70
     1
102
RTVSPost2010Prop48
 90
       50
102
RTVSPost2010PropOp48
 70
     1
102
RTVSPost2010Prop49
280
     0
102
RTVSPost2010PropOp49
 70
     1
102
RTVSPost2010Prop50
 90
       50
102
RTVSPost2010PropOp50
 70
     1
102
RTVSPost2010Prop51ColorIndex
 90
      256
102
RTVSPost2010Prop51ColorRGB
 90
-16777216
102
RTVSPost2010PropOp51
 70
     0
102
RTVSPost2010Prop52
140
1.0
102
RTVSPost2010PropOp52
 70
     0
102
RTVSPost2010Prop53
 90
        2
102
RTVSPost2010PropOp53
 70
     1
102
RTVSPost2010Prop54
  1
strokes_ogs.tif
102
RTVSPost2010PropOp54
 70
     1
102
RTVSPost2010Prop55
280
     0
102
RTVSPost2010PropOp55
 70
     1
102
RTVSPost2010Prop56
140
1.0
102
RTVSPost2010PropOp56
 70
     1
102
RTVSPost2010Prop57
140
1.0
102
RTVSPost2010PropOp57
 70
     1
102
RTVSPropertyOp0
 70
     1
102
RTVSPropertyOp1
 70
     1
102
RTVSPropertyOp2
 70
     1
102
RTVSPropertyOp3
 70
     1
102
RTVSPropertyOp4
 70
     1
102
RTVSPropertyOp5
 70
     1
102
RTVSPropertyOp6
 70
     1
102
RTVSPropertyOp7
 70
     1
102
RTVSPropertyOp8
 70
     1
102
RTVSPropertyOp9
 70
     1
102
RTVSPropertyOp10
 70
     1
102
RTVSPropertyOp11
 70
     1
102
RTVSPropertyOp12
 70
     1
102
RTVSPropertyOp13
 70
     1
102
RTVSPropertyOp14
 70
     1
102
RTVSPropertyOp15
 70
     1
102
RTVSPropertyOp16
 70
     1
102
RTVSPropertyOp17
 70
     1
102
RTVSPropertyOp18
 70
     1
102
RTVSPropertyOp19
 70
     1
102
RTVSPropertyOp20
 70
     1
102
RTVSPropertyOp21
 70
     1
102
RTVSPropertyOp22
 70
     1
102
RTVSPropertyOp23
 70
     1
102
RTVSPropertyOp24
 70
     1
102
RTVSPropertyOp25
 70
     1
102
RTVSPropertyOp26
 70
     1
102
RTVSPropertyOp27
 70
     1
102
RTVSPropertyOp28
 70
     1
102
RTVSPropertyOp29
 70
     1
102
RTVSPropertyOp30
 70
     1
102
RTVSPropertyOp31
 70
     1
102
RTVSPropertyOp32
 70
     1
102
RTVSPropertyOp33
 70
     1
102
RTVSPropertyOp34
 70
     1
102
RTVSPropertyOp35
 70
     1
102
RTVSPropertyOp36
 70
     1
102
RTVSPropertyOp37
 70
     1
102
RTVSPropertyOp38
 70
     1
102
RTVSPropertyOp39
 70
     1
102
RTVSPropertyOp40
 70
     1
102
RTVSPropertyOp41
 70
     1
102
RTVSPropertyOp42
 70
     1
102
RTVSPropertyOp43
 70
     1
102
RTVSPropertyOp44
 70
     1
102
RTVSPropertyOp45
 70
     1
102
RTVSPropertyOp46
 70
     1
102
RTVSPropertyOp47
 70
     1
102
RTVSPropertyOp48
 70
     1
102
RTVSPropertyOp49
 70
     1
102
RTVSPropertyOp50
 70
     1
102
RTVSPropertyOp51
 70
     0
102
RTVSPropertyOp52
 70
     0
102
RTVSPropertyOp53
 70
     1
102
RTVSPropertyOp54
 70
     1
102
RTVSPropertyOp55
 70
     1
102
RTVSPropertyOp56
 70
     1
102
RTVSPropertyOp57
 70
     1
102
RTVSPropertyOp58
 70
     1
102
RTVSPropertyOp59
 70
     1
102
RTVSPropertyOp60
 70
     1
102
RTVSPropertyOp61
 70
     1
102
RTVSPropertyOp62
 70
     1
  0
XRECORD
  5
30B
102
{ACAD_REACTORS
330
30A
102
}
330
30A
100
AcDbXrecord
280
     1
102
RTVSPost2010Prop28
280
     0
102
RTVSPost2010PropOp28
 70
     1
102
RTVSPost2010Prop29
280
     1
102
RTVSPost2010PropOp29
 70
     1
102
RTVSPost2010Prop30
280
     1
102
RTVSPost2010PropOp30
 70
     1
102
RTVSPost2010Prop31
280
     0
102
RTVSPost2010PropOp31
 70
     1
102
RTVSPost2010Prop32
280
     0
102
RTVSPost2010PropOp32
 70
     1
102
RTVSPost2010Prop33
280
     0
102
RTVSPost2010PropOp33
 70
     1
102
RTVSPost2010Prop34
280
     0
102
RTVSPost2010PropOp34
 70
     1
102
RTVSPost2010Prop35
280
     0
102
RTVSPost2010PropOp35
 70
     1
102
RTVSPost2010Prop36
280
     0
102
RTVSPost2010PropOp36
 70
     1
102
RTVSPost2010Prop37
 90
       50
102
RTVSPost2010PropOp37
 70
     1
102
RTVSPost2010Prop38
140
0.0
102
RTVSPost2010PropOp38
 70
     1
102
RTVSPost2010Prop39
140
1.0
102
RTVSPost2010PropOp39
 70
     1
102
RTVSPost2010Prop40
 90
        0
102
RTVSPost2010PropOp40
 70
     1
102
RTVSPost2010Prop41ColorIndex
 90
       18
102
RTVSPost2010Prop41ColorRGB
 90
        0
102
RTVSPost2010PropOp41
 70
     1
102
RTVSPost2010Prop42
 90
       50
102
RTVSPost2010PropOp42
 70
     1
102
RTVSPost2010Prop43
 90
        3
102
RTVSPost2010PropOp43
 70
     1
102
RTVSPost2010Prop44ColorIndex
 90
        5
102
RTVSPost2010Prop44ColorRGB
 90
      255
102
RTVSPost2010PropOp44
 70
     1
102
RTVSPost2010Prop45
280
     0
102
RTVSPost2010PropOp45
 70
     1
102
RTVSPost2010Prop46
 90
       50
102
RTVSPost2010PropOp46
 70
     1
102
RTVSPost2010Prop47
 90
       50
102
RTVSPost2010PropOp47
 70
     1
102
RTVSPost2010Prop48
 90
       50
102
RTVSPost2010PropOp48
 70
     1
102
RTVSPost2010Prop49
280
     0
102
RTVSPost2010PropOp49
 70
     1
102
RTVSPost2010Prop50
 90
       50
102
RTVSPost2010PropOp50
 70
     1
102
RTVSPost2010Prop51ColorIndex
 90
      256
102
RTVSPost2010Prop51ColorRGB
 90
-16777216
102
RTVSPost2010PropOp51
 70
     0
102
RTVSPost2010Prop52
140
1.0
102
RTVSPost2010PropOp52
 70
     0
102
RTVSPost2010Prop53
 90
        2
102
RTVSPost2010PropOp53
 70
     1
102
RTVSPost2010Prop54
  1
strokes_ogs.tif
102
RTVSPost2010PropOp54
 70
     1
102
RTVSPost2010Prop55
280
     0
102
RTVSPost2010PropOp55
 70
     1
102
RTVSPost2010Prop56
140
1.0
102
RTVSPost2010PropOp56
 70
     1
102
RTVSPost2010Prop57
140
1.0
102
RTVSPost2010PropOp57
 70
     1
102
RTVSPropertyOp0
 70
     1
102
RTVSPropertyOp1
 70
     1
102
RTVSPropertyOp2
 70
     1
102
RTVSPropertyOp3
 70
     1
102
RTVSPropertyOp4
 70
     1
102
RTVSPropertyOp5
 70
     1
102
RTVSPropertyOp6
 70
     1
102
RTVSPropertyOp7
 70
     1
102
RTVSPropertyOp8
 70
     1
102
RTVSPropertyOp9
 70
     1
102
RTVSPropertyOp10
 70
     1
102
RTVSPropertyOp11
 70
     1
102
RTVSPropertyOp12
 70
     1
102
RTVSPropertyOp13
 70
     1
102
RTVSPropertyOp14
 70
     1
102
RTVSPropertyOp15
 70
     1
102
RTVSPropertyOp16
 70
     1
102
RTVSPropertyOp17
 70
     1
102
RTVSPropertyOp18
 70
     1
102
RTVSPropertyOp19
 70
     1
102
RTVSPropertyOp20
 70
     1
102
RTVSPropertyOp21
 70
     1
102
RTVSPropertyOp22
 70
     1
102
RTVSPropertyOp23
 70
     1
102
RTVSPropertyOp24
 70
     1
102
RTVSPropertyOp25
 70
     1
102
RTVSPropertyOp26
 70
     1
102
RTVSPropertyOp27
 70
     1
102
RTVSPropertyOp28
 70
     1
102
RTVSPropertyOp29
 70
     1
102
RTVSPropertyOp30
 70
     1
102
RTVSPropertyOp31
 70
     1
102
RTVSPropertyOp32
 70
     1
102
RTVSPropertyOp33
 70
     1
102
RTVSPropertyOp34
 70
     1
102
RTVSPropertyOp35
 70
     1
102
RTVSPropertyOp36
 70
     1
102
RTVSPropertyOp37
 70
     1
102
RTVSPropertyOp38
 70
     1
102
RTVSPropertyOp39
 70
     1
102
RTVSPropertyOp40
 70
     1
102
RTVSPropertyOp41
 70
     1
102
RTVSPropertyOp42
 70
     1
102
RTVSPropertyOp43
 70
     1
102
RTVSPropertyOp44
 70
     1
102
RTVSPropertyOp45
 70
     1
102
RTVSPropertyOp46
 70
     1
102
RTVSPropertyOp47
 70
     1
102
RTVSPropertyOp48
 70
     1
102
RTVSPropertyOp49
 70
     1
102
RTVSPropertyOp50
 70
     1
102
RTVSPropertyOp51
 70
     0
102
RTVSPropertyOp52
 70
     0
102
RTVSPropertyOp53
 70
     1
102
RTVSPropertyOp54
 70
     1
102
RTVSPropertyOp55
 70
     1
102
RTVSPropertyOp56
 70
     1
102
RTVSPropertyOp57
 70
     1
102
RTVSPropertyOp58
 70
     1
102
RTVSPropertyOp59
 70
     1
102
RTVSPropertyOp60
 70
     1
102
RTVSPropertyOp61
 70
     1
102
RTVSPropertyOp62
 70
     1
  0
XRECORD
  5
30F
102
{ACAD_REACTORS
330
30E
102
}
330
30E
100
AcDbXrecord
280
     1
102
RTVSPost2010Prop28
280
     0
102
RTVSPost2010PropOp28
 70
     1
102
RTVSPost2010Prop29
280
     1
102
RTVSPost2010PropOp29
 70
     1
102
RTVSPost2010Prop30
280
     1
102
RTVSPost2010PropOp30
 70
     1
102
RTVSPost2010Prop31
280
     0
102
RTVSPost2010PropOp31
 70
     1
102
RTVSPost2010Prop32
280
     0
102
RTVSPost2010PropOp32
 70
     1
102
RTVSPost2010Prop33
280
     0
102
RTVSPost2010PropOp33
 70
     1
102
RTVSPost2010Prop34
280
     0
102
RTVSPost2010PropOp34
 70
     1
102
RTVSPost2010Prop35
280
     0
102
RTVSPost2010PropOp35
 70
     1
102
RTVSPost2010Prop36
280
     0
102
RTVSPost2010PropOp36
 70
     1
102
RTVSPost2010Prop37
 90
       50
102
RTVSPost2010PropOp37
 70
     1
102
RTVSPost2010Prop38
140
0.0
102
RTVSPost2010PropOp38
 70
     1
102
RTVSPost2010Prop39
140
1.0
102
RTVSPost2010PropOp39
 70
     1
102
RTVSPost2010Prop40
 90
        0
102
RTVSPost2010PropOp40
 70
     1
102
RTVSPost2010Prop41ColorIndex
 90
       18
102
RTVSPost2010Prop41ColorRGB
 90
        0
102
RTVSPost2010PropOp41
 70
     1
102
RTVSPost2010Prop42
 90
       50
102
RTVSPost2010PropOp42
 70
     1
102
RTVSPost2010Prop43
 90
        3
102
RTVSPost2010PropOp43
 70
     1
102
RTVSPost2010Prop44ColorIndex
 90
        5
102
RTVSPost2010Prop44ColorRGB
 90
      255
102
RTVSPost2010PropOp44
 70
     1
102
RTVSPost2010Prop45
280
     0
102
RTVSPost2010PropOp45
 70
     1
102
RTVSPost2010Prop46
 90
       50
102
RTVSPost2010PropOp46
 70
     1
102
RTVSPost2010Prop47
 90
       50
102
RTVSPost2010PropOp47
 70
     1
102
RTVSPost2010Prop48
 90
       50
102
RTVSPost2010PropOp48
 70
     1
102
RTVSPost2010Prop49
280
     0
102
RTVSPost2010PropOp49
 70
     1
102
RTVSPost2010Prop50
 90
       50
102
RTVSPost2010PropOp50
 70
     1
102
RTVSPost2010Prop51ColorIndex
 90
      256
102
RTVSPost2010Prop51ColorRGB
 90
-16777216
102
RTVSPost2010PropOp51
 70
     0
102
RTVSPost2010Prop52
140
1.0
102
RTVSPost2010PropOp52
 70
     0
102
RTVSPost2010Prop53
 90
        2
102
RTVSPost2010PropOp53
 70
     1
102
RTVSPost2010Prop54
  1
strokes_ogs.tif
102
RTVSPost2010PropOp54
 70
     1
102
RTVSPost2010Prop55
280
     0
102
RTVSPost2010PropOp55
 70
     1
102
RTVSPost2010Prop56
140
1.0
102
RTVSPost2010PropOp56
 70
     1
102
RTVSPost2010Prop57
140
1.0
102
RTVSPost2010PropOp57
 70
     1
102
RTVSPropertyOp0
 70
     1
102
RTVSPropertyOp1
 70
     1
102
RTVSPropertyOp2
 70
     1
102
RTVSPropertyOp3
 70
     1
102
RTVSPropertyOp4
 70
     1
102
RTVSPropertyOp5
 70
     1
102
RTVSPropertyOp6
 70
     1
102
RTVSPropertyOp7
 70
     1
102
RTVSPropertyOp8
 70
     1
102
RTVSPropertyOp9
 70
     1
102
RTVSPropertyOp10
 70
     1
102
RTVSPropertyOp11
 70
     1
102
RTVSPropertyOp12
 70
     1
102
RTVSPropertyOp13
 70
     1
102
RTVSPropertyOp14
 70
     1
102
RTVSPropertyOp15
 70
     1
102
RTVSPropertyOp16
 70
     1
102
RTVSPropertyOp17
 70
     1
102
RTVSPropertyOp18
 70
     1
102
RTVSPropertyOp19
 70
     1
102
RTVSPropertyOp20
 70
     1
102
RTVSPropertyOp21
 70
     1
102
RTVSPropertyOp22
 70
     1
102
RTVSPropertyOp23
 70
     1
102
RTVSPropertyOp24
 70
     1
102
RTVSPropertyOp25
 70
     1
102
RTVSPropertyOp26
 70
     1
102
RTVSPropertyOp27
 70
     1
102
RTVSPropertyOp28
 70
     1
102
RTVSPropertyOp29
 70
     1
102
RTVSPropertyOp30
 70
     1
102
RTVSPropertyOp31
 70
     1
102
RTVSPropertyOp32
 70
     1
102
RTVSPropertyOp33
 70
     1
102
RTVSPropertyOp34
 70
     1
102
RTVSPropertyOp35
 70
     1
102
RTVSPropertyOp36
 70
     1
102
RTVSPropertyOp37
 70
     1
102
RTVSPropertyOp38
 70
     1
102
RTVSPropertyOp39
 70
     1
102
RTVSPropertyOp40
 70
     1
102
RTVSPropertyOp41
 70
     1
102
RTVSPropertyOp42
 70
     1
102
RTVSPropertyOp43
 70
     1
102
RTVSPropertyOp44
 70
     1
102
RTVSPropertyOp45
 70
     1
102
RTVSPropertyOp46
 70
     1
102
RTVSPropertyOp47
 70
     1
102
RTVSPropertyOp48
 70
     1
102
RTVSPropertyOp49
 70
     1
102
RTVSPropertyOp50
 70
     1
102
RTVSPropertyOp51
 70
     0
102
RTVSPropertyOp52
 70
     0
102
RTVSPropertyOp53
 70
     1
102
RTVSPropertyOp54
 70
     1
102
RTVSPropertyOp55
 70
     1
102
RTVSPropertyOp56
 70
     1
102
RTVSPropertyOp57
 70
     1
102
RTVSPropertyOp58
 70
     1
102
RTVSPropertyOp59
 70
     1
102
RTVSPropertyOp60
 70
     1
102
RTVSPropertyOp61
 70
     1
102
RTVSPropertyOp62
 70
     1
  0
XRECORD
  5
329
102
{ACAD_REACTORS
330
328
102
}
330
328
100
AcDbXrecord
280
     1
102
RTVSPost2010Prop28
280
     0
102
RTVSPost2010PropOp28
 70
     0
102
RTVSPost2010Prop29
280
     1
102
RTVSPost2010PropOp29
 70
     0
102
RTVSPost2010Prop30
280
     1
102
RTVSPost2010PropOp30
 70
     0
102
RTVSPost2010Prop31
280
     0
102
RTVSPost2010PropOp31
 70
     0
102
RTVSPost2010Prop32
280
     0
102
RTVSPost2010PropOp32
 70
     0
102
RTVSPost2010Prop33
280
     0
102
RTVSPost2010PropOp33
 70
     0
102
RTVSPost2010Prop34
280
     0
102
RTVSPost2010PropOp34
 70
     0
102
RTVSPost2010Prop35
280
     0
102
RTVSPost2010PropOp35
 70
     0
102
RTVSPost2010Prop36
280
     0
102
RTVSPost2010PropOp36
 70
     0
102
RTVSPost2010Prop37
 90
       50
102
RTVSPost2010PropOp37
 70
     0
102
RTVSPost2010Prop38
140
0.0
102
RTVSPost2010PropOp38
 70
     0
102
RTVSPost2010Prop39
140
1.0
102
RTVSPost2010PropOp39
 70
     0
102
RTVSPost2010Prop40
 90
        0
102
RTVSPost2010PropOp40
 70
     0
102
RTVSPost2010Prop41ColorIndex
 90
       18
102
RTVSPost2010Prop41ColorRGB
 90
        0
102
RTVSPost2010PropOp41
 70
     0
102
RTVSPost2010Prop42
 90
       50
102
RTVSPost2010PropOp42
 70
     0
102
RTVSPost2010Prop43
 90
        3
102
RTVSPost2010PropOp43
 70
     0
102
RTVSPost2010Prop44ColorIndex
 90
        5
102
RTVSPost2010Prop44ColorRGB
 90
      255
102
RTVSPost2010PropOp44
 70
     0
102
RTVSPost2010Prop45
280
     0
102
RTVSPost2010PropOp45
 70
     0
102
RTVSPost2010Prop46
 90
       50
102
RTVSPost2010PropOp46
 70
     0
102
RTVSPost2010Prop47
 90
       50
102
RTVSPost2010PropOp47
 70
     0
102
RTVSPost2010Prop48
 90
       50
102
RTVSPost2010PropOp48
 70
     0
102
RTVSPost2010Prop49
280
     0
102
RTVSPost2010PropOp49
 70
     0
102
RTVSPost2010Prop50
 90
       50
102
RTVSPost2010PropOp50
 70
     0
102
RTVSPost2010Prop51ColorIndex
 90
      256
102
RTVSPost2010Prop51ColorRGB
 90
-16777216
102
RTVSPost2010PropOp51
 70
     0
102
RTVSPost2010Prop52
140
1.0
102
RTVSPost2010PropOp52
 70
     0
102
RTVSPost2010Prop53
 90
        2
102
RTVSPost2010PropOp53
 70
     0
102
RTVSPost2010Prop54
  1
strokes_ogs.tif
102
RTVSPost2010PropOp54
 70
     0
102
RTVSPost2010Prop55
280
     0
102
RTVSPost2010PropOp55
 70
     0
102
RTVSPost2010Prop56
140
1.0
102
RTVSPost2010PropOp56
 70
     0
102
RTVSPost2010Prop57
140
1.0
102
RTVSPost2010PropOp57
 70
     0
102
RTVSPropertyOp0
 70
     0
102
RTVSPropertyOp1
 70
     0
102
RTVSPropertyOp2
 70
     0
102
RTVSPropertyOp3
 70
     0
102
RTVSPropertyOp4
 70
     0
102
RTVSPropertyOp5
 70
     0
102
RTVSPropertyOp6
 70
     0
102
RTVSPropertyOp7
 70
     0
102
RTVSPropertyOp8
 70
     0
102
RTVSPropertyOp9
 70
     0
102
RTVSPropertyOp10
 70
     0
102
RTVSPropertyOp11
 70
     0
102
RTVSPropertyOp12
 70
     0
102
RTVSPropertyOp13
 70
     0
102
RTVSPropertyOp14
 70
     2
102
RTVSPropertyOp15
 70
     0
102
RTVSPropertyOp16
 70
     0
102
RTVSPropertyOp17
 70
     0
102
RTVSPropertyOp18
 70
     0
102
RTVSPropertyOp19
 70
     0
102
RTVSPropertyOp20
 70
     0
102
RTVSPropertyOp21
 70
     0
102
RTVSPropertyOp22
 70
     0
102
RTVSPropertyOp23
 70
     0
102
RTVSPropertyOp24
 70
     0
102
RTVSPropertyOp25
 70
     0
102
RTVSPropertyOp26
 70
     0
102
RTVSPropertyOp27
 70
     0
102
RTVSPropertyOp28
 70
     0
102
RTVSPropertyOp29
 70
     0
102
RTVSPropertyOp30
 70
     0
102
RTVSPropertyOp31
 70
     0
102
RTVSPropertyOp32
 70
     0
102
RTVSPropertyOp33
 70
     0
102
RTVSPropertyOp34
 70
     0
102
RTVSPropertyOp35
 70
     0
102
RTVSPropertyOp36
 70
     0
102
RTVSPropertyOp37
 70
     0
102
RTVSPropertyOp38
 70
     0
102
RTVSPropertyOp39
 70
     0
102
RTVSPropertyOp40
 70
     0
102
RTVSPropertyOp41
 70
     0
102
RTVSPropertyOp42
 70
     0
102
RTVSPropertyOp43
 70
     0
102
RTVSPropertyOp44
 70
     0
102
RTVSPropertyOp45
 70
     0
102
RTVSPropertyOp46
 70
     0
102
RTVSPropertyOp47
 70
     0
102
RTVSPropertyOp48
 70
     0
102
RTVSPropertyOp49
 70
     0
102
RTVSPropertyOp50
 70
     0
102
RTVSPropertyOp51
 70
     0
102
RTVSPropertyOp52
 70
     0
102
RTVSPropertyOp53
 70
     0
102
RTVSPropertyOp54
 70
     0
102
RTVSPropertyOp55
 70
     0
102
RTVSPropertyOp56
 70
     0
102
RTVSPropertyOp57
 70
     0
102
RTVSPropertyOp58
 70
     0
102
RTVSPropertyOp59
 70
     0
102
RTVSPropertyOp60
 70
     0
102
RTVSPropertyOp61
 70
     0
102
RTVSPropertyOp62
 70
     0
  0
XRECORD
  5
317
102
{ACAD_REACTORS
330
316
102
}
330
316
100
AcDbXrecord
280
     1
102
RTVSPost2010Prop28
280
     0
102
RTVSPost2010PropOp28
 70
     1
102
RTVSPost2010Prop29
280
     1
102
RTVSPost2010PropOp29
 70
     1
102
RTVSPost2010Prop30
280
     1
102
RTVSPost2010PropOp30
 70
     1
102
RTVSPost2010Prop31
280
     0
102
RTVSPost2010PropOp31
 70
     1
102
RTVSPost2010Prop32
280
     0
102
RTVSPost2010PropOp32
 70
     1
102
RTVSPost2010Prop33
280
     0
102
RTVSPost2010PropOp33
 70
     1
102
RTVSPost2010Prop34
280
     0
102
RTVSPost2010PropOp34
 70
     1
102
RTVSPost2010Prop35
280
     0
102
RTVSPost2010PropOp35
 70
     1
102
RTVSPost2010Prop36
280
     0
102
RTVSPost2010PropOp36
 70
     1
102
RTVSPost2010Prop37
 90
       50
102
RTVSPost2010PropOp37
 70
     1
102
RTVSPost2010Prop38
140
0.0
102
RTVSPost2010PropOp38
 70
     1
102
RTVSPost2010Prop39
140
1.0
102
RTVSPost2010PropOp39
 70
     1
102
RTVSPost2010Prop40
 90
        0
102
RTVSPost2010PropOp40
 70
     1
102
RTVSPost2010Prop41ColorIndex
 90
       18
102
RTVSPost2010Prop41ColorRGB
 90
        0
102
RTVSPost2010PropOp41
 70
     1
102
RTVSPost2010Prop42
 90
       50
102
RTVSPost2010PropOp42
 70
     1
102
RTVSPost2010Prop43
 90
        3
102
RTVSPost2010PropOp43
 70
     1
102
RTVSPost2010Prop44ColorIndex
 90
        5
102
RTVSPost2010Prop44ColorRGB
 90
      255
102
RTVSPost2010PropOp44
 70
     1
102
RTVSPost2010Prop45
280
     0
102
RTVSPost2010PropOp45
 70
     1
102
RTVSPost2010Prop46
 90
       50
102
RTVSPost2010PropOp46
 70
     1
102
RTVSPost2010Prop47
 90
       50
102
RTVSPost2010PropOp47
 70
     1
102
RTVSPost2010Prop48
 90
       50
102
RTVSPost2010PropOp48
 70
     1
102
RTVSPost2010Prop49
280
     0
102
RTVSPost2010PropOp49
 70
     1
102
RTVSPost2010Prop50
 90
       50
102
RTVSPost2010PropOp50
 70
     1
102
RTVSPost2010Prop51ColorIndex
 90
      256
102
RTVSPost2010Prop51ColorRGB
 90
-16777216
102
RTVSPost2010PropOp51
 70
     0
102
RTVSPost2010Prop52
140
1.0
102
RTVSPost2010PropOp52
 70
     0
102
RTVSPost2010Prop53
 90
        2
102
RTVSPost2010PropOp53
 70
     1
102
RTVSPost2010Prop54
  1
strokes_ogs.tif
102
RTVSPost2010PropOp54
 70
     1
102
RTVSPost2010Prop55
280
     0
102
RTVSPost2010PropOp55
 70
     1
102
RTVSPost2010Prop56
140
1.0
102
RTVSPost2010PropOp56
 70
     1
102
RTVSPost2010Prop57
140
1.0
102
RTVSPost2010PropOp57
 70
     1
102
RTVSPropertyOp0
 70
     1
102
RTVSPropertyOp1
 70
     1
102
RTVSPropertyOp2
 70
     1
102
RTVSPropertyOp3
 70
     1
102
RTVSPropertyOp4
 70
     1
102
RTVSPropertyOp5
 70
     1
102
RTVSPropertyOp6
 70
     1
102
RTVSPropertyOp7
 70
     1
102
RTVSPropertyOp8
 70
     1
102
RTVSPropertyOp9
 70
     1
102
RTVSPropertyOp10
 70
     1
102
RTVSPropertyOp11
 70
     1
102
RTVSPropertyOp12
 70
     1
102
RTVSPropertyOp13
 70
     1
102
RTVSPropertyOp14
 70
     1
102
RTVSPropertyOp15
 70
     1
102
RTVSPropertyOp16
 70
     1
102
RTVSPropertyOp17
 70
     1
102
RTVSPropertyOp18
 70
     1
102
RTVSPropertyOp19
 70
     1
102
RTVSPropertyOp20
 70
     1
102
RTVSPropertyOp21
 70
     1
102
RTVSPropertyOp22
 70
     1
102
RTVSPropertyOp23
 70
     1
102
RTVSPropertyOp24
 70
     1
102
RTVSPropertyOp25
 70
     1
102
RTVSPropertyOp26
 70
     1
102
RTVSPropertyOp27
 70
     1
102
RTVSPropertyOp28
 70
     1
102
RTVSPropertyOp29
 70
     1
102
RTVSPropertyOp30
 70
     1
102
RTVSPropertyOp31
 70
     1
102
RTVSPropertyOp32
 70
     1
102
RTVSPropertyOp33
 70
     1
102
RTVSPropertyOp34
 70
     1
102
RTVSPropertyOp35
 70
     1
102
RTVSPropertyOp36
 70
     1
102
RTVSPropertyOp37
 70
     1
102
RTVSPropertyOp38
 70
     1
102
RTVSPropertyOp39
 70
     1
102
RTVSPropertyOp40
 70
     1
102
RTVSPropertyOp41
 70
     1
102
RTVSPropertyOp42
 70
     1
102
RTVSPropertyOp43
 70
     1
102
RTVSPropertyOp44
 70
     1
102
RTVSPropertyOp45
 70
     1
102
RTVSPropertyOp46
 70
     1
102
RTVSPropertyOp47
 70
     1
102
RTVSPropertyOp48
 70
     1
102
RTVSPropertyOp49
 70
     1
102
RTVSPropertyOp50
 70
     1
102
RTVSPropertyOp51
 70
     0
102
RTVSPropertyOp52
 70
     0
102
RTVSPropertyOp53
 70
     1
102
RTVSPropertyOp54
 70
     1
102
RTVSPropertyOp55
 70
     1
102
RTVSPropertyOp56
 70
     1
102
RTVSPropertyOp57
 70
     1
102
RTVSPropertyOp58
 70
     1
102
RTVSPropertyOp59
 70
     1
102
RTVSPropertyOp60
 70
     1
102
RTVSPropertyOp61
 70
     1
102
RTVSPropertyOp62
 70
     1
  0
XRECORD
  5
2FB
102
{ACAD_REACTORS
330
2FA
102
}
330
2FA
100
AcDbXrecord
280
     1
102
RTVSPost2010Prop28
280
     0
102
RTVSPost2010PropOp28
 70
     1
102
RTVSPost2010Prop29
280
     1
102
RTVSPost2010PropOp29
 70
     1
102
RTVSPost2010Prop30
280
     1
102
RTVSPost2010PropOp30
 70
     1
102
RTVSPost2010Prop31
280
     0
102
RTVSPost2010PropOp31
 70
     1
102
RTVSPost2010Prop32
280
     0
102
RTVSPost2010PropOp32
 70
     1
102
RTVSPost2010Prop33
280
     0
102
RTVSPost2010PropOp33
 70
     1
102
RTVSPost2010Prop34
280
     0
102
RTVSPost2010PropOp34
 70
     1
102
RTVSPost2010Prop35
280
     0
102
RTVSPost2010PropOp35
 70
     1
102
RTVSPost2010Prop36
280
     0
102
RTVSPost2010PropOp36
 70
     1
102
RTVSPost2010Prop37
 90
       50
102
RTVSPost2010PropOp37
 70
     1
102
RTVSPost2010Prop38
140
0.0
102
RTVSPost2010PropOp38
 70
     1
102
RTVSPost2010Prop39
140
1.0
102
RTVSPost2010PropOp39
 70
     1
102
RTVSPost2010Prop40
 90
        0
102
RTVSPost2010PropOp40
 70
     1
102
RTVSPost2010Prop41ColorIndex
 90
       18
102
RTVSPost2010Prop41ColorRGB
 90
        0
102
RTVSPost2010PropOp41
 70
     1
102
RTVSPost2010Prop42
 90
       50
102
RTVSPost2010PropOp42
 70
     1
102
RTVSPost2010Prop43
 90
        3
102
RTVSPost2010PropOp43
 70
     1
102
RTVSPost2010Prop44ColorIndex
 90
        5
102
RTVSPost2010Prop44ColorRGB
 90
      255
102
RTVSPost2010PropOp44
 70
     1
102
RTVSPost2010Prop45
280
     0
102
RTVSPost2010PropOp45
 70
     1
102
RTVSPost2010Prop46
 90
       50
102
RTVSPost2010PropOp46
 70
     1
102
RTVSPost2010Prop47
 90
       50
102
RTVSPost2010PropOp47
 70
     1
102
RTVSPost2010Prop48
 90
       50
102
RTVSPost2010PropOp48
 70
     1
102
RTVSPost2010Prop49
280
     0
102
RTVSPost2010PropOp49
 70
     1
102
RTVSPost2010Prop50
 90
       50
102
RTVSPost2010PropOp50
 70
     1
102
RTVSPost2010Prop51ColorIndex
 90
      256
102
RTVSPost2010Prop51ColorRGB
 90
-16777216
102
RTVSPost2010PropOp51
 70
     0
102
RTVSPost2010Prop52
140
1.0
102
RTVSPost2010PropOp52
 70
     0
102
RTVSPost2010Prop53
 90
        2
102
RTVSPost2010PropOp53
 70
     1
102
RTVSPost2010Prop54
  1
strokes_ogs.tif
102
RTVSPost2010PropOp54
 70
     1
102
RTVSPost2010Prop55
280
     0
102
RTVSPost2010PropOp55
 70
     1
102
RTVSPost2010Prop56
140
1.0
102
RTVSPost2010PropOp56
 70
     1
102
RTVSPost2010Prop57
140
1.0
102
RTVSPost2010PropOp57
 70
     1
102
RTVSPropertyOp0
 70
     1
102
RTVSPropertyOp1
 70
     1
102
RTVSPropertyOp2
 70
     1
102
RTVSPropertyOp3
 70
     1
102
RTVSPropertyOp4
 70
     1
102
RTVSPropertyOp5
 70
     1
102
RTVSPropertyOp6
 70
     1
102
RTVSPropertyOp7
 70
     1
102
RTVSPropertyOp8
 70
     1
102
RTVSPropertyOp9
 70
     1
102
RTVSPropertyOp10
 70
     1
102
RTVSPropertyOp11
 70
     1
102
RTVSPropertyOp12
 70
     1
102
RTVSPropertyOp13
 70
     1
102
RTVSPropertyOp14
 70
     1
102
RTVSPropertyOp15
 70
     1
102
RTVSPropertyOp16
 70
     1
102
RTVSPropertyOp17
 70
     1
102
RTVSPropertyOp18
 70
     1
102
RTVSPropertyOp19
 70
     1
102
RTVSPropertyOp20
 70
     1
102
RTVSPropertyOp21
 70
     1
102
RTVSPropertyOp22
 70
     1
102
RTVSPropertyOp23
 70
     1
102
RTVSPropertyOp24
 70
     1
102
RTVSPropertyOp25
 70
     1
102
RTVSPropertyOp26
 70
     1
102
RTVSPropertyOp27
 70
     1
102
RTVSPropertyOp28
 70
     1
102
RTVSPropertyOp29
 70
     1
102
RTVSPropertyOp30
 70
     1
102
RTVSPropertyOp31
 70
     1
102
RTVSPropertyOp32
 70
     1
102
RTVSPropertyOp33
 70
     1
102
RTVSPropertyOp34
 70
     1
102
RTVSPropertyOp35
 70
     1
102
RTVSPropertyOp36
 70
     1
102
RTVSPropertyOp37
 70
     1
102
RTVSPropertyOp38
 70
     1
102
RTVSPropertyOp39
 70
     1
102
RTVSPropertyOp40
 70
     1
102
RTVSPropertyOp41
 70
     1
102
RTVSPropertyOp42
 70
     1
102
RTVSPropertyOp43
 70
     1
102
RTVSPropertyOp44
 70
     1
102
RTVSPropertyOp45
 70
     1
102
RTVSPropertyOp46
 70
     1
102
RTVSPropertyOp47
 70
     1
102
RTVSPropertyOp48
 70
     1
102
RTVSPropertyOp49
 70
     1
102
RTVSPropertyOp50
 70
     1
102
RTVSPropertyOp51
 70
     0
102
RTVSPropertyOp52
 70
     0
102
RTVSPropertyOp53
 70
     1
102
RTVSPropertyOp54
 70
     1
102
RTVSPropertyOp55
 70
     1
102
RTVSPropertyOp56
 70
     1
102
RTVSPropertyOp57
 70
     1
102
RTVSPropertyOp58
 70
     1
102
RTVSPropertyOp59
 70
     1
102
RTVSPropertyOp60
 70
     1
102
RTVSPropertyOp61
 70
     1
102
RTVSPropertyOp62
 70
     1
  0
XRECORD
  5
2FD
102
{ACAD_REACTORS
330
2FC
102
}
330
2FC
100
AcDbXrecord
280
     1
102
RTVSPost2010Prop28
280
     0
102
RTVSPost2010PropOp28
 70
     1
102
RTVSPost2010Prop29
280
     1
102
RTVSPost2010PropOp29
 70
     1
102
RTVSPost2010Prop30
280
     1
102
RTVSPost2010PropOp30
 70
     1
102
RTVSPost2010Prop31
280
     0
102
RTVSPost2010PropOp31
 70
     1
102
RTVSPost2010Prop32
280
     0
102
RTVSPost2010PropOp32
 70
     1
102
RTVSPost2010Prop33
280
     0
102
RTVSPost2010PropOp33
 70
     1
102
RTVSPost2010Prop34
280
     0
102
RTVSPost2010PropOp34
 70
     1
102
RTVSPost2010Prop35
280
     0
102
RTVSPost2010PropOp35
 70
     1
102
RTVSPost2010Prop36
280
     0
102
RTVSPost2010PropOp36
 70
     1
102
RTVSPost2010Prop37
 90
       50
102
RTVSPost2010PropOp37
 70
     1
102
RTVSPost2010Prop38
140
0.0
102
RTVSPost2010PropOp38
 70
     1
102
RTVSPost2010Prop39
140
1.0
102
RTVSPost2010PropOp39
 70
     1
102
RTVSPost2010Prop40
 90
        0
102
RTVSPost2010PropOp40
 70
     1
102
RTVSPost2010Prop41ColorIndex
 90
       18
102
RTVSPost2010Prop41ColorRGB
 90
        0
102
RTVSPost2010PropOp41
 70
     1
102
RTVSPost2010Prop42
 90
       50
102
RTVSPost2010PropOp42
 70
     1
102
RTVSPost2010Prop43
 90
        3
102
RTVSPost2010PropOp43
 70
     1
102
RTVSPost2010Prop44ColorIndex
 90
        5
102
RTVSPost2010Prop44ColorRGB
 90
      255
102
RTVSPost2010PropOp44
 70
     1
102
RTVSPost2010Prop45
280
     0
102
RTVSPost2010PropOp45
 70
     1
102
RTVSPost2010Prop46
 90
       50
102
RTVSPost2010PropOp46
 70
     1
102
RTVSPost2010Prop47
 90
       50
102
RTVSPost2010PropOp47
 70
     1
102
RTVSPost2010Prop48
 90
       50
102
RTVSPost2010PropOp48
 70
     1
102
RTVSPost2010Prop49
280
     0
102
RTVSPost2010PropOp49
 70
     1
102
RTVSPost2010Prop50
 90
       50
102
RTVSPost2010PropOp50
 70
     1
102
RTVSPost2010Prop51ColorIndex
 90
      256
102
RTVSPost2010Prop51ColorRGB
 90
-16777216
102
RTVSPost2010PropOp51
 70
     0
102
RTVSPost2010Prop52
140
1.0
102
RTVSPost2010PropOp52
 70
     0
102
RTVSPost2010Prop53
 90
        2
102
RTVSPost2010PropOp53
 70
     1
102
RTVSPost2010Prop54
  1
strokes_ogs.tif
102
RTVSPost2010PropOp54
 70
     1
102
RTVSPost2010Prop55
280
     0
102
RTVSPost2010PropOp55
 70
     1
102
RTVSPost2010Prop56
140
1.0
102
RTVSPost2010PropOp56
 70
     1
102
RTVSPost2010Prop57
140
1.0
102
RTVSPost2010PropOp57
 70
     1
102
RTVSPropertyOp0
 70
     1
102
RTVSPropertyOp1
 70
     1
102
RTVSPropertyOp2
 70
     1
102
RTVSPropertyOp3
 70
     1
102
RTVSPropertyOp4
 70
     1
102
RTVSPropertyOp5
 70
     1
102
RTVSPropertyOp6
 70
     1
102
RTVSPropertyOp7
 70
     1
102
RTVSPropertyOp8
 70
     1
102
RTVSPropertyOp9
 70
     1
102
RTVSPropertyOp10
 70
     1
102
RTVSPropertyOp11
 70
     1
102
RTVSPropertyOp12
 70
     1
102
RTVSPropertyOp13
 70
     1
102
RTVSPropertyOp14
 70
     1
102
RTVSPropertyOp15
 70
     1
102
RTVSPropertyOp16
 70
     1
102
RTVSPropertyOp17
 70
     1
102
RTVSPropertyOp18
 70
     1
102
RTVSPropertyOp19
 70
     1
102
RTVSPropertyOp20
 70
     1
102
RTVSPropertyOp21
 70
     1
102
RTVSPropertyOp22
 70
     1
102
RTVSPropertyOp23
 70
     1
102
RTVSPropertyOp24
 70
     1
102
RTVSPropertyOp25
 70
     1
102
RTVSPropertyOp26
 70
     1
102
RTVSPropertyOp27
 70
     1
102
RTVSPropertyOp28
 70
     1
102
RTVSPropertyOp29
 70
     1
102
RTVSPropertyOp30
 70
     1
102
RTVSPropertyOp31
 70
     1
102
RTVSPropertyOp32
 70
     1
102
RTVSPropertyOp33
 70
     1
102
RTVSPropertyOp34
 70
     1
102
RTVSPropertyOp35
 70
     1
102
RTVSPropertyOp36
 70
     1
102
RTVSPropertyOp37
 70
     1
102
RTVSPropertyOp38
 70
     1
102
RTVSPropertyOp39
 70
     1
102
RTVSPropertyOp40
 70
     1
102
RTVSPropertyOp41
 70
     1
102
RTVSPropertyOp42
 70
     1
102
RTVSPropertyOp43
 70
     1
102
RTVSPropertyOp44
 70
     1
102
RTVSPropertyOp45
 70
     1
102
RTVSPropertyOp46
 70
     1
102
RTVSPropertyOp47
 70
     1
102
RTVSPropertyOp48
 70
     1
102
RTVSPropertyOp49
 70
     1
102
RTVSPropertyOp50
 70
     1
102
RTVSPropertyOp51
 70
     0
102
RTVSPropertyOp52
 70
     0
102
RTVSPropertyOp53
 70
     1
102
RTVSPropertyOp54
 70
     1
102
RTVSPropertyOp55
 70
     1
102
RTVSPropertyOp56
 70
     1
102
RTVSPropertyOp57
 70
     1
102
RTVSPropertyOp58
 70
     1
102
RTVSPropertyOp59
 70
     1
102
RTVSPropertyOp60
 70
     1
102
RTVSPropertyOp61
 70
     1
102
RTVSPropertyOp62
 70
     1
  0
XRECORD
  5
2FF
102
{ACAD_REACTORS
330
2FE
102
}
330
2FE
100
AcDbXrecord
280
     1
102
RTVSPost2010Prop28
280
     0
102
RTVSPost2010PropOp28
 70
     1
102
RTVSPost2010Prop29
280
     1
102
RTVSPost2010PropOp29
 70
     1
102
RTVSPost2010Prop30
280
     1
102
RTVSPost2010PropOp30
 70
     1
102
RTVSPost2010Prop31
280
     0
102
RTVSPost2010PropOp31
 70
     1
102
RTVSPost2010Prop32
280
     0
102
RTVSPost2010PropOp32
 70
     1
102
RTVSPost2010Prop33
280
     0
102
RTVSPost2010PropOp33
 70
     1
102
RTVSPost2010Prop34
280
     0
102
RTVSPost2010PropOp34
 70
     1
102
RTVSPost2010Prop35
280
     0
102
RTVSPost2010PropOp35
 70
     1
102
RTVSPost2010Prop36
280
     0
102
RTVSPost2010PropOp36
 70
     1
102
RTVSPost2010Prop37
 90
       50
102
RTVSPost2010PropOp37
 70
     1
102
RTVSPost2010Prop38
140
0.0
102
RTVSPost2010PropOp38
 70
     1
102
RTVSPost2010Prop39
140
1.0
102
RTVSPost2010PropOp39
 70
     1
102
RTVSPost2010Prop40
 90
        0
102
RTVSPost2010PropOp40
 70
     1
102
RTVSPost2010Prop41ColorIndex
 90
       18
102
RTVSPost2010Prop41ColorRGB
 90
        0
102
RTVSPost2010PropOp41
 70
     1
102
RTVSPost2010Prop42
 90
       50
102
RTVSPost2010PropOp42
 70
     1
102
RTVSPost2010Prop43
 90
        3
102
RTVSPost2010PropOp43
 70
     1
102
RTVSPost2010Prop44ColorIndex
 90
        5
102
RTVSPost2010Prop44ColorRGB
 90
      255
102
RTVSPost2010PropOp44
 70
     1
102
RTVSPost2010Prop45
280
     0
102
RTVSPost2010PropOp45
 70
     1
102
RTVSPost2010Prop46
 90
       50
102
RTVSPost2010PropOp46
 70
     1
102
RTVSPost2010Prop47
 90
       50
102
RTVSPost2010PropOp47
 70
     1
102
RTVSPost2010Prop48
 90
       50
102
RTVSPost2010PropOp48
 70
     1
102
RTVSPost2010Prop49
280
     0
102
RTVSPost2010PropOp49
 70
     1
102
RTVSPost2010Prop50
 90
       50
102
RTVSPost2010PropOp50
 70
     1
102
RTVSPost2010Prop51ColorIndex
 90
      256
102
RTVSPost2010Prop51ColorRGB
 90
-16777216
102
RTVSPost2010PropOp51
 70
     0
102
RTVSPost2010Prop52
140
1.0
102
RTVSPost2010PropOp52
 70
     0
102
RTVSPost2010Prop53
 90
        2
102
RTVSPost2010PropOp53
 70
     1
102
RTVSPost2010Prop54
  1
strokes_ogs.tif
102
RTVSPost2010PropOp54
 70
     1
102
RTVSPost2010Prop55
280
     0
102
RTVSPost2010PropOp55
 70
     1
102
RTVSPost2010Prop56
140
1.0
102
RTVSPost2010PropOp56
 70
     1
102
RTVSPost2010Prop57
140
1.0
102
RTVSPost2010PropOp57
 70
     1
102
RTVSPropertyOp0
 70
     1
102
RTVSPropertyOp1
 70
     1
102
RTVSPropertyOp2
 70
     1
102
RTVSPropertyOp3
 70
     1
102
RTVSPropertyOp4
 70
     1
102
RTVSPropertyOp5
 70
     1
102
RTVSPropertyOp6
 70
     1
102
RTVSPropertyOp7
 70
     1
102
RTVSPropertyOp8
 70
     1
102
RTVSPropertyOp9
 70
     1
102
RTVSPropertyOp10
 70
     1
102
RTVSPropertyOp11
 70
     1
102
RTVSPropertyOp12
 70
     1
102
RTVSPropertyOp13
 70
     1
102
RTVSPropertyOp14
 70
     1
102
RTVSPropertyOp15
 70
     1
102
RTVSPropertyOp16
 70
     1
102
RTVSPropertyOp17
 70
     1
102
RTVSPropertyOp18
 70
     1
102
RTVSPropertyOp19
 70
     1
102
RTVSPropertyOp20
 70
     1
102
RTVSPropertyOp21
 70
     1
102
RTVSPropertyOp22
 70
     1
102
RTVSPropertyOp23
 70
     1
102
RTVSPropertyOp24
 70
     1
102
RTVSPropertyOp25
 70
     1
102
RTVSPropertyOp26
 70
     1
102
RTVSPropertyOp27
 70
     1
102
RTVSPropertyOp28
 70
     1
102
RTVSPropertyOp29
 70
     1
102
RTVSPropertyOp30
 70
     1
102
RTVSPropertyOp31
 70
     1
102
RTVSPropertyOp32
 70
     1
102
RTVSPropertyOp33
 70
     1
102
RTVSPropertyOp34
 70
     1
102
RTVSPropertyOp35
 70
     1
102
RTVSPropertyOp36
 70
     1
102
RTVSPropertyOp37
 70
     1
102
RTVSPropertyOp38
 70
     1
102
RTVSPropertyOp39
 70
     1
102
RTVSPropertyOp40
 70
     1
102
RTVSPropertyOp41
 70
     1
102
RTVSPropertyOp42
 70
     1
102
RTVSPropertyOp43
 70
     1
102
RTVSPropertyOp44
 70
     1
102
RTVSPropertyOp45
 70
     1
102
RTVSPropertyOp46
 70
     1
102
RTVSPropertyOp47
 70
     1
102
RTVSPropertyOp48
 70
     1
102
RTVSPropertyOp49
 70
     1
102
RTVSPropertyOp50
 70
     1
102
RTVSPropertyOp51
 70
     0
102
RTVSPropertyOp52
 70
     0
102
RTVSPropertyOp53
 70
     1
102
RTVSPropertyOp54
 70
     1
102
RTVSPropertyOp55
 70
     1
102
RTVSPropertyOp56
 70
     1
102
RTVSPropertyOp57
 70
     1
102
RTVSPropertyOp58
 70
     1
102
RTVSPropertyOp59
 70
     1
102
RTVSPropertyOp60
 70
     1
102
RTVSPropertyOp61
 70
     1
102
RTVSPropertyOp62
 70
     1
  0
XRECORD
  5
301
102
{ACAD_REACTORS
330
300
102
}
330
300
100
AcDbXrecord
280
     1
102
RTVSPost2010Prop28
280
     0
102
RTVSPost2010PropOp28
 70
     1
102
RTVSPost2010Prop29
280
     1
102
RTVSPost2010PropOp29
 70
     1
102
RTVSPost2010Prop30
280
     1
102
RTVSPost2010PropOp30
 70
     1
102
RTVSPost2010Prop31
280
     0
102
RTVSPost2010PropOp31
 70
     1
102
RTVSPost2010Prop32
280
     0
102
RTVSPost2010PropOp32
 70
     1
102
RTVSPost2010Prop33
280
     0
102
RTVSPost2010PropOp33
 70
     1
102
RTVSPost2010Prop34
280
     0
102
RTVSPost2010PropOp34
 70
     1
102
RTVSPost2010Prop35
280
     0
102
RTVSPost2010PropOp35
 70
     1
102
RTVSPost2010Prop36
280
     0
102
RTVSPost2010PropOp36
 70
     1
102
RTVSPost2010Prop37
 90
       50
102
RTVSPost2010PropOp37
 70
     1
102
RTVSPost2010Prop38
140
0.0
102
RTVSPost2010PropOp38
 70
     1
102
RTVSPost2010Prop39
140
1.0
102
RTVSPost2010PropOp39
 70
     1
102
RTVSPost2010Prop40
 90
        0
102
RTVSPost2010PropOp40
 70
     1
102
RTVSPost2010Prop41ColorIndex
 90
       18
102
RTVSPost2010Prop41ColorRGB
 90
        0
102
RTVSPost2010PropOp41
 70
     1
102
RTVSPost2010Prop42
 90
       50
102
RTVSPost2010PropOp42
 70
     1
102
RTVSPost2010Prop43
 90
        3
102
RTVSPost2010PropOp43
 70
     1
102
RTVSPost2010Prop44ColorIndex
 90
        5
102
RTVSPost2010Prop44ColorRGB
 90
      255
102
RTVSPost2010PropOp44
 70
     1
102
RTVSPost2010Prop45
280
     0
102
RTVSPost2010PropOp45
 70
     1
102
RTVSPost2010Prop46
 90
       50
102
RTVSPost2010PropOp46
 70
     1
102
RTVSPost2010Prop47
 90
       50
102
RTVSPost2010PropOp47
 70
     1
102
RTVSPost2010Prop48
 90
       50
102
RTVSPost2010PropOp48
 70
     1
102
RTVSPost2010Prop49
280
     0
102
RTVSPost2010PropOp49
 70
     1
102
RTVSPost2010Prop50
 90
       50
102
RTVSPost2010PropOp50
 70
     1
102
RTVSPost2010Prop51ColorIndex
 90
      256
102
RTVSPost2010Prop51ColorRGB
 90
-16777216
102
RTVSPost2010PropOp51
 70
     0
102
RTVSPost2010Prop52
140
1.0
102
RTVSPost2010PropOp52
 70
     0
102
RTVSPost2010Prop53
 90
        2
102
RTVSPost2010PropOp53
 70
     1
102
RTVSPost2010Prop54
  1
strokes_ogs.tif
102
RTVSPost2010PropOp54
 70
     1
102
RTVSPost2010Prop55
280
     0
102
RTVSPost2010PropOp55
 70
     1
102
RTVSPost2010Prop56
140
1.0
102
RTVSPost2010PropOp56
 70
     1
102
RTVSPost2010Prop57
140
1.0
102
RTVSPost2010PropOp57
 70
     1
102
RTVSPropertyOp0
 70
     1
102
RTVSPropertyOp1
 70
     1
102
RTVSPropertyOp2
 70
     1
102
RTVSPropertyOp3
 70
     1
102
RTVSPropertyOp4
 70
     1
102
RTVSPropertyOp5
 70
     1
102
RTVSPropertyOp6
 70
     1
102
RTVSPropertyOp7
 70
     1
102
RTVSPropertyOp8
 70
     1
102
RTVSPropertyOp9
 70
     1
102
RTVSPropertyOp10
 70
     1
102
RTVSPropertyOp11
 70
     1
102
RTVSPropertyOp12
 70
     1
102
RTVSPropertyOp13
 70
     1
102
RTVSPropertyOp14
 70
     1
102
RTVSPropertyOp15
 70
     1
102
RTVSPropertyOp16
 70
     1
102
RTVSPropertyOp17
 70
     1
102
RTVSPropertyOp18
 70
     1
102
RTVSPropertyOp19
 70
     1
102
RTVSPropertyOp20
 70
     1
102
RTVSPropertyOp21
 70
     1
102
RTVSPropertyOp22
 70
     1
102
RTVSPropertyOp23
 70
     1
102
RTVSPropertyOp24
 70
     1
102
RTVSPropertyOp25
 70
     1
102
RTVSPropertyOp26
 70
     1
102
RTVSPropertyOp27
 70
     1
102
RTVSPropertyOp28
 70
     1
102
RTVSPropertyOp29
 70
     1
102
RTVSPropertyOp30
 70
     1
102
RTVSPropertyOp31
 70
     1
102
RTVSPropertyOp32
 70
     1
102
RTVSPropertyOp33
 70
     1
102
RTVSPropertyOp34
 70
     1
102
RTVSPropertyOp35
 70
     1
102
RTVSPropertyOp36
 70
     1
102
RTVSPropertyOp37
 70
     1
102
RTVSPropertyOp38
 70
     1
102
RTVSPropertyOp39
 70
     1
102
RTVSPropertyOp40
 70
     1
102
RTVSPropertyOp41
 70
     1
102
RTVSPropertyOp42
 70
     1
102
RTVSPropertyOp43
 70
     1
102
RTVSPropertyOp44
 70
     1
102
RTVSPropertyOp45
 70
     1
102
RTVSPropertyOp46
 70
     1
102
RTVSPropertyOp47
 70
     1
102
RTVSPropertyOp48
 70
     1
102
RTVSPropertyOp49
 70
     1
102
RTVSPropertyOp50
 70
     1
102
RTVSPropertyOp51
 70
     0
102
RTVSPropertyOp52
 70
     0
102
RTVSPropertyOp53
 70
     1
102
RTVSPropertyOp54
 70
     1
102
RTVSPropertyOp55
 70
     1
102
RTVSPropertyOp56
 70
     1
102
RTVSPropertyOp57
 70
     1
102
RTVSPropertyOp58
 70
     1
102
RTVSPropertyOp59
 70
     1
102
RTVSPropertyOp60
 70
     1
102
RTVSPropertyOp61
 70
     1
102
RTVSPropertyOp62
 70
     1
  0
XRECORD
  5
309
102
{ACAD_REACTORS
330
308
102
}
330
308
100
AcDbXrecord
280
     1
102
RTVSPost2010Prop28
280
     0
102
RTVSPost2010PropOp28
 70
     1
102
RTVSPost2010Prop29
280
     1
102
RTVSPost2010PropOp29
 70
     1
102
RTVSPost2010Prop30
280
     1
102
RTVSPost2010PropOp30
 70
     1
102
RTVSPost2010Prop31
280
     0
102
RTVSPost2010PropOp31
 70
     1
102
RTVSPost2010Prop32
280
     0
102
RTVSPost2010PropOp32
 70
     1
102
RTVSPost2010Prop33
280
     0
102
RTVSPost2010PropOp33
 70
     1
102
RTVSPost2010Prop34
280
     0
102
RTVSPost2010PropOp34
 70
     1
102
RTVSPost2010Prop35
280
     0
102
RTVSPost2010PropOp35
 70
     1
102
RTVSPost2010Prop36
280
     0
102
RTVSPost2010PropOp36
 70
     1
102
RTVSPost2010Prop37
 90
       50
102
RTVSPost2010PropOp37
 70
     1
102
RTVSPost2010Prop38
140
0.0
102
RTVSPost2010PropOp38
 70
     1
102
RTVSPost2010Prop39
140
1.0
102
RTVSPost2010PropOp39
 70
     1
102
RTVSPost2010Prop40
 90
        0
102
RTVSPost2010PropOp40
 70
     1
102
RTVSPost2010Prop41ColorIndex
 90
       18
102
RTVSPost2010Prop41ColorRGB
 90
        0
102
RTVSPost2010PropOp41
 70
     1
102
RTVSPost2010Prop42
 90
       50
102
RTVSPost2010PropOp42
 70
     1
102
RTVSPost2010Prop43
 90
        3
102
RTVSPost2010PropOp43
 70
     1
102
RTVSPost2010Prop44ColorIndex
 90
        5
102
RTVSPost2010Prop44ColorRGB
 90
      255
102
RTVSPost2010PropOp44
 70
     1
102
RTVSPost2010Prop45
280
     0
102
RTVSPost2010PropOp45
 70
     1
102
RTVSPost2010Prop46
 90
       50
102
RTVSPost2010PropOp46
 70
     1
102
RTVSPost2010Prop47
 90
       50
102
RTVSPost2010PropOp47
 70
     1
102
RTVSPost2010Prop48
 90
       50
102
RTVSPost2010PropOp48
 70
     1
102
RTVSPost2010Prop49
280
     0
102
RTVSPost2010PropOp49
 70
     1
102
RTVSPost2010Prop50
 90
       50
102
RTVSPost2010PropOp50
 70
     1
102
RTVSPost2010Prop51ColorIndex
 90
      256
102
RTVSPost2010Prop51ColorRGB
 90
-16777216
102
RTVSPost2010PropOp51
 70
     0
102
RTVSPost2010Prop52
140
1.0
102
RTVSPost2010PropOp52
 70
     0
102
RTVSPost2010Prop53
 90
        2
102
RTVSPost2010PropOp53
 70
     1
102
RTVSPost2010Prop54
  1
strokes_ogs.tif
102
RTVSPost2010PropOp54
 70
     1
102
RTVSPost2010Prop55
280
     0
102
RTVSPost2010PropOp55
 70
     1
102
RTVSPost2010Prop56
140
1.0
102
RTVSPost2010PropOp56
 70
     1
102
RTVSPost2010Prop57
140
1.0
102
RTVSPost2010PropOp57
 70
     1
102
RTVSPropertyOp0
 70
     1
102
RTVSPropertyOp1
 70
     1
102
RTVSPropertyOp2
 70
     1
102
RTVSPropertyOp3
 70
     1
102
RTVSPropertyOp4
 70
     1
102
RTVSPropertyOp5
 70
     1
102
RTVSPropertyOp6
 70
     1
102
RTVSPropertyOp7
 70
     1
102
RTVSPropertyOp8
 70
     1
102
RTVSPropertyOp9
 70
     1
102
RTVSPropertyOp10
 70
     1
102
RTVSPropertyOp11
 70
     1
102
RTVSPropertyOp12
 70
     1
102
RTVSPropertyOp13
 70
     1
102
RTVSPropertyOp14
 70
     1
102
RTVSPropertyOp15
 70
     1
102
RTVSPropertyOp16
 70
     1
102
RTVSPropertyOp17
 70
     1
102
RTVSPropertyOp18
 70
     1
102
RTVSPropertyOp19
 70
     1
102
RTVSPropertyOp20
 70
     1
102
RTVSPropertyOp21
 70
     1
102
RTVSPropertyOp22
 70
     1
102
RTVSPropertyOp23
 70
     1
102
RTVSPropertyOp24
 70
     1
102
RTVSPropertyOp25
 70
     1
102
RTVSPropertyOp26
 70
     1
102
RTVSPropertyOp27
 70
     1
102
RTVSPropertyOp28
 70
     1
102
RTVSPropertyOp29
 70
     1
102
RTVSPropertyOp30
 70
     1
102
RTVSPropertyOp31
 70
     1
102
RTVSPropertyOp32
 70
     1
102
RTVSPropertyOp33
 70
     1
102
RTVSPropertyOp34
 70
     1
102
RTVSPropertyOp35
 70
     1
102
RTVSPropertyOp36
 70
     1
102
RTVSPropertyOp37
 70
     1
102
RTVSPropertyOp38
 70
     1
102
RTVSPropertyOp39
 70
     1
102
RTVSPropertyOp40
 70
     1
102
RTVSPropertyOp41
 70
     1
102
RTVSPropertyOp42
 70
     1
102
RTVSPropertyOp43
 70
     1
102
RTVSPropertyOp44
 70
     1
102
RTVSPropertyOp45
 70
     1
102
RTVSPropertyOp46
 70
     1
102
RTVSPropertyOp47
 70
     1
102
RTVSPropertyOp48
 70
     1
102
RTVSPropertyOp49
 70
     1
102
RTVSPropertyOp50
 70
     1
102
RTVSPropertyOp51
 70
     0
102
RTVSPropertyOp52
 70
     0
102
RTVSPropertyOp53
 70
     1
102
RTVSPropertyOp54
 70
     1
102
RTVSPropertyOp55
 70
     1
102
RTVSPropertyOp56
 70
     1
102
RTVSPropertyOp57
 70
     1
102
RTVSPropertyOp58
 70
     1
102
RTVSPropertyOp59
 70
     1
102
RTVSPropertyOp60
 70
     1
102
RTVSPropertyOp61
 70
     1
102
RTVSPropertyOp62
 70
     1
  0
XRECORD
  5
325
102
{ACAD_REACTORS
330
324
102
}
330
324
100
AcDbXrecord
280
     1
102
RTVSPost2010Prop28
280
     0
102
RTVSPost2010PropOp28
 70
     0
102
RTVSPost2010Prop29
280
     1
102
RTVSPost2010PropOp29
 70
     0
102
RTVSPost2010Prop30
280
     1
102
RTVSPost2010PropOp30
 70
     0
102
RTVSPost2010Prop31
280
     0
102
RTVSPost2010PropOp31
 70
     0
102
RTVSPost2010Prop32
280
     0
102
RTVSPost2010PropOp32
 70
     0
102
RTVSPost2010Prop33
280
     0
102
RTVSPost2010PropOp33
 70
     0
102
RTVSPost2010Prop34
280
     0
102
RTVSPost2010PropOp34
 70
     0
102
RTVSPost2010Prop35
280
     0
102
RTVSPost2010PropOp35
 70
     0
102
RTVSPost2010Prop36
280
     0
102
RTVSPost2010PropOp36
 70
     0
102
RTVSPost2010Prop37
 90
       50
102
RTVSPost2010PropOp37
 70
     0
102
RTVSPost2010Prop38
140
0.0
102
RTVSPost2010PropOp38
 70
     0
102
RTVSPost2010Prop39
140
1.0
102
RTVSPost2010PropOp39
 70
     0
102
RTVSPost2010Prop40
 90
        0
102
RTVSPost2010PropOp40
 70
     0
102
RTVSPost2010Prop41ColorIndex
 90
       18
102
RTVSPost2010Prop41ColorRGB
 90
        0
102
RTVSPost2010PropOp41
 70
     0
102
RTVSPost2010Prop42
 90
       50
102
RTVSPost2010PropOp42
 70
     0
102
RTVSPost2010Prop43
 90
        3
102
RTVSPost2010PropOp43
 70
     0
102
RTVSPost2010Prop44ColorIndex
 90
        5
102
RTVSPost2010Prop44ColorRGB
 90
      255
102
RTVSPost2010PropOp44
 70
     0
102
RTVSPost2010Prop45
280
     0
102
RTVSPost2010PropOp45
 70
     0
102
RTVSPost2010Prop46
 90
       50
102
RTVSPost2010PropOp46
 70
     0
102
RTVSPost2010Prop47
 90
       50
102
RTVSPost2010PropOp47
 70
     0
102
RTVSPost2010Prop48
 90
       50
102
RTVSPost2010PropOp48
 70
     0
102
RTVSPost2010Prop49
280
     0
102
RTVSPost2010PropOp49
 70
     0
102
RTVSPost2010Prop50
 90
       50
102
RTVSPost2010PropOp50
 70
     0
102
RTVSPost2010Prop51ColorIndex
 90
      256
102
RTVSPost2010Prop51ColorRGB
 90
-16777216
102
RTVSPost2010PropOp51
 70
     0
102
RTVSPost2010Prop52
140
1.0
102
RTVSPost2010PropOp52
 70
     0
102
RTVSPost2010Prop53
 90
        2
102
RTVSPost2010PropOp53
 70
     0
102
RTVSPost2010Prop54
  1
strokes_ogs.tif
102
RTVSPost2010PropOp54
 70
     0
102
RTVSPost2010Prop55
280
     0
102
RTVSPost2010PropOp55
 70
     0
102
RTVSPost2010Prop56
140
1.0
102
RTVSPost2010PropOp56
 70
     0
102
RTVSPost2010Prop57
140
1.0
102
RTVSPost2010PropOp57
 70
     0
102
RTVSPropertyOp0
 70
     0
102
RTVSPropertyOp1
 70
     0
102
RTVSPropertyOp2
 70
     0
102
RTVSPropertyOp3
 70
     0
102
RTVSPropertyOp4
 70
     0
102
RTVSPropertyOp5
 70
     0
102
RTVSPropertyOp6
 70
     0
102
RTVSPropertyOp7
 70
     0
102
RTVSPropertyOp8
 70
     0
102
RTVSPropertyOp9
 70
     0
102
RTVSPropertyOp10
 70
     0
102
RTVSPropertyOp11
 70
     0
102
RTVSPropertyOp12
 70
     0
102
RTVSPropertyOp13
 70
     0
102
RTVSPropertyOp14
 70
     2
102
RTVSPropertyOp15
 70
     0
102
RTVSPropertyOp16
 70
     0
102
RTVSPropertyOp17
 70
     0
102
RTVSPropertyOp18
 70
     0
102
RTVSPropertyOp19
 70
     0
102
RTVSPropertyOp20
 70
     0
102
RTVSPropertyOp21
 70
     0
102
RTVSPropertyOp22
 70
     0
102
RTVSPropertyOp23
 70
     0
102
RTVSPropertyOp24
 70
     0
102
RTVSPropertyOp25
 70
     0
102
RTVSPropertyOp26
 70
     0
102
RTVSPropertyOp27
 70
     0
102
RTVSPropertyOp28
 70
     0
102
RTVSPropertyOp29
 70
     0
102
RTVSPropertyOp30
 70
     0
102
RTVSPropertyOp31
 70
     0
102
RTVSPropertyOp32
 70
     0
102
RTVSPropertyOp33
 70
     0
102
RTVSPropertyOp34
 70
     0
102
RTVSPropertyOp35
 70
     0
102
RTVSPropertyOp36
 70
     0
102
RTVSPropertyOp37
 70
     0
102
RTVSPropertyOp38
 70
     0
102
RTVSPropertyOp39
 70
     0
102
RTVSPropertyOp40
 70
     0
102
RTVSPropertyOp41
 70
     0
102
RTVSPropertyOp42
 70
     0
102
RTVSPropertyOp43
 70
     0
102
RTVSPropertyOp44
 70
     0
102
RTVSPropertyOp45
 70
     0
102
RTVSPropertyOp46
 70
     0
102
RTVSPropertyOp47
 70
     0
102
RTVSPropertyOp48
 70
     0
102
RTVSPropertyOp49
 70
     0
102
RTVSPropertyOp50
 70
     0
102
RTVSPropertyOp51
 70
     0
102
RTVSPropertyOp52
 70
     0
102
RTVSPropertyOp53
 70
     0
102
RTVSPropertyOp54
 70
     0
102
RTVSPropertyOp55
 70
     0
102
RTVSPropertyOp56
 70
     0
102
RTVSPropertyOp57
 70
     0
102
RTVSPropertyOp58
 70
     0
102
RTVSPropertyOp59
 70
     0
102
RTVSPropertyOp60
 70
     0
102
RTVSPropertyOp61
 70
     0
102
RTVSPropertyOp62
 70
     0
  0
XRECORD
  5
315
102
{ACAD_REACTORS
330
314
102
}
330
314
100
AcDbXrecord
280
     1
102
RTVSPost2010Prop28
280
     0
102
RTVSPost2010PropOp28
 70
     1
102
RTVSPost2010Prop29
280
     1
102
RTVSPost2010PropOp29
 70
     1
102
RTVSPost2010Prop30
280
     1
102
RTVSPost2010PropOp30
 70
     1
102
RTVSPost2010Prop31
280
     0
102
RTVSPost2010PropOp31
 70
     1
102
RTVSPost2010Prop32
280
     0
102
RTVSPost2010PropOp32
 70
     1
102
RTVSPost2010Prop33
280
     0
102
RTVSPost2010PropOp33
 70
     1
102
RTVSPost2010Prop34
280
     0
102
RTVSPost2010PropOp34
 70
     1
102
RTVSPost2010Prop35
280
     0
102
RTVSPost2010PropOp35
 70
     1
102
RTVSPost2010Prop36
280
     0
102
RTVSPost2010PropOp36
 70
     1
102
RTVSPost2010Prop37
 90
       50
102
RTVSPost2010PropOp37
 70
     1
102
RTVSPost2010Prop38
140
0.0
102
RTVSPost2010PropOp38
 70
     1
102
RTVSPost2010Prop39
140
1.0
102
RTVSPost2010PropOp39
 70
     1
102
RTVSPost2010Prop40
 90
        0
102
RTVSPost2010PropOp40
 70
     1
102
RTVSPost2010Prop41ColorIndex
 90
       18
102
RTVSPost2010Prop41ColorRGB
 90
        0
102
RTVSPost2010PropOp41
 70
     1
102
RTVSPost2010Prop42
 90
       50
102
RTVSPost2010PropOp42
 70
     1
102
RTVSPost2010Prop43
 90
        3
102
RTVSPost2010PropOp43
 70
     1
102
RTVSPost2010Prop44ColorIndex
 90
        5
102
RTVSPost2010Prop44ColorRGB
 90
      255
102
RTVSPost2010PropOp44
 70
     1
102
RTVSPost2010Prop45
280
     0
102
RTVSPost2010PropOp45
 70
     1
102
RTVSPost2010Prop46
 90
       50
102
RTVSPost2010PropOp46
 70
     1
102
RTVSPost2010Prop47
 90
       50
102
RTVSPost2010PropOp47
 70
     1
102
RTVSPost2010Prop48
 90
       50
102
RTVSPost2010PropOp48
 70
     1
102
RTVSPost2010Prop49
280
     0
102
RTVSPost2010PropOp49
 70
     1
102
RTVSPost2010Prop50
 90
       50
102
RTVSPost2010PropOp50
 70
     1
102
RTVSPost2010Prop51ColorIndex
 90
      256
102
RTVSPost2010Prop51ColorRGB
 90
-16777216
102
RTVSPost2010PropOp51
 70
     0
102
RTVSPost2010Prop52
140
1.0
102
RTVSPost2010PropOp52
 70
     0
102
RTVSPost2010Prop53
 90
        2
102
RTVSPost2010PropOp53
 70
     1
102
RTVSPost2010Prop54
  1
strokes_ogs.tif
102
RTVSPost2010PropOp54
 70
     1
102
RTVSPost2010Prop55
280
     0
102
RTVSPost2010PropOp55
 70
     1
102
RTVSPost2010Prop56
140
1.0
102
RTVSPost2010PropOp56
 70
     1
102
RTVSPost2010Prop57
140
1.0
102
RTVSPost2010PropOp57
 70
     1
102
RTVSPropertyOp0
 70
     1
102
RTVSPropertyOp1
 70
     1
102
RTVSPropertyOp2
 70
     1
102
RTVSPropertyOp3
 70
     1
102
RTVSPropertyOp4
 70
     1
102
RTVSPropertyOp5
 70
     1
102
RTVSPropertyOp6
 70
     1
102
RTVSPropertyOp7
 70
     1
102
RTVSPropertyOp8
 70
     1
102
RTVSPropertyOp9
 70
     1
102
RTVSPropertyOp10
 70
     1
102
RTVSPropertyOp11
 70
     1
102
RTVSPropertyOp12
 70
     1
102
RTVSPropertyOp13
 70
     1
102
RTVSPropertyOp14
 70
     1
102
RTVSPropertyOp15
 70
     1
102
RTVSPropertyOp16
 70
     1
102
RTVSPropertyOp17
 70
     1
102
RTVSPropertyOp18
 70
     1
102
RTVSPropertyOp19
 70
     1
102
RTVSPropertyOp20
 70
     1
102
RTVSPropertyOp21
 70
     1
102
RTVSPropertyOp22
 70
     1
102
RTVSPropertyOp23
 70
     1
102
RTVSPropertyOp24
 70
     1
102
RTVSPropertyOp25
 70
     1
102
RTVSPropertyOp26
 70
     1
102
RTVSPropertyOp27
 70
     1
102
RTVSPropertyOp28
 70
     1
102
RTVSPropertyOp29
 70
     1
102
RTVSPropertyOp30
 70
     1
102
RTVSPropertyOp31
 70
     1
102
RTVSPropertyOp32
 70
     1
102
RTVSPropertyOp33
 70
     1
102
RTVSPropertyOp34
 70
     1
102
RTVSPropertyOp35
 70
     1
102
RTVSPropertyOp36
 70
     1
102
RTVSPropertyOp37
 70
     1
102
RTVSPropertyOp38
 70
     1
102
RTVSPropertyOp39
 70
     1
102
RTVSPropertyOp40
 70
     1
102
RTVSPropertyOp41
 70
     1
102
RTVSPropertyOp42
 70
     1
102
RTVSPropertyOp43
 70
     1
102
RTVSPropertyOp44
 70
     1
102
RTVSPropertyOp45
 70
     1
102
RTVSPropertyOp46
 70
     1
102
RTVSPropertyOp47
 70
     1
102
RTVSPropertyOp48
 70
     1
102
RTVSPropertyOp49
 70
     1
102
RTVSPropertyOp50
 70
     1
102
RTVSPropertyOp51
 70
     0
102
RTVSPropertyOp52
 70
     0
102
RTVSPropertyOp53
 70
     1
102
RTVSPropertyOp54
 70
     1
102
RTVSPropertyOp55
 70
     1
102
RTVSPropertyOp56
 70
     1
102
RTVSPropertyOp57
 70
     1
102
RTVSPropertyOp58
 70
     1
102
RTVSPropertyOp59
 70
     1
102
RTVSPropertyOp60
 70
     1
102
RTVSPropertyOp61
 70
     1
102
RTVSPropertyOp62
 70
     1
  0
XRECORD
  5
327
102
{ACAD_REACTORS
330
326
102
}
330
326
100
AcDbXrecord
280
     1
102
RTVSPost2010Prop28
280
     0
102
RTVSPost2010PropOp28
 70
     0
102
RTVSPost2010Prop29
280
     1
102
RTVSPost2010PropOp29
 70
     0
102
RTVSPost2010Prop30
280
     1
102
RTVSPost2010PropOp30
 70
     0
102
RTVSPost2010Prop31
280
     0
102
RTVSPost2010PropOp31
 70
     0
102
RTVSPost2010Prop32
280
     0
102
RTVSPost2010PropOp32
 70
     0
102
RTVSPost2010Prop33
280
     0
102
RTVSPost2010PropOp33
 70
     0
102
RTVSPost2010Prop34
280
     0
102
RTVSPost2010PropOp34
 70
     0
102
RTVSPost2010Prop35
280
     0
102
RTVSPost2010PropOp35
 70
     0
102
RTVSPost2010Prop36
280
     0
102
RTVSPost2010PropOp36
 70
     0
102
RTVSPost2010Prop37
 90
       50
102
RTVSPost2010PropOp37
 70
     0
102
RTVSPost2010Prop38
140
0.0
102
RTVSPost2010PropOp38
 70
     0
102
RTVSPost2010Prop39
140
1.0
102
RTVSPost2010PropOp39
 70
     0
102
RTVSPost2010Prop40
 90
        0
102
RTVSPost2010PropOp40
 70
     0
102
RTVSPost2010Prop41ColorIndex
 90
       18
102
RTVSPost2010Prop41ColorRGB
 90
        0
102
RTVSPost2010PropOp41
 70
     0
102
RTVSPost2010Prop42
 90
       50
102
RTVSPost2010PropOp42
 70
     0
102
RTVSPost2010Prop43
 90
        3
102
RTVSPost2010PropOp43
 70
     0
102
RTVSPost2010Prop44ColorIndex
 90
        5
102
RTVSPost2010Prop44ColorRGB
 90
      255
102
RTVSPost2010PropOp44
 70
     0
102
RTVSPost2010Prop45
280
     0
102
RTVSPost2010PropOp45
 70
     0
102
RTVSPost2010Prop46
 90
       50
102
RTVSPost2010PropOp46
 70
     0
102
RTVSPost2010Prop47
 90
       50
102
RTVSPost2010PropOp47
 70
     0
102
RTVSPost2010Prop48
 90
       50
102
RTVSPost2010PropOp48
 70
     0
102
RTVSPost2010Prop49
280
     0
102
RTVSPost2010PropOp49
 70
     0
102
RTVSPost2010Prop50
 90
       50
102
RTVSPost2010PropOp50
 70
     0
102
RTVSPost2010Prop51ColorIndex
 90
      256
102
RTVSPost2010Prop51ColorRGB
 90
-16777216
102
RTVSPost2010PropOp51
 70
     0
102
RTVSPost2010Prop52
140
1.0
102
RTVSPost2010PropOp52
 70
     0
102
RTVSPost2010Prop53
 90
        2
102
RTVSPost2010PropOp53
 70
     0
102
RTVSPost2010Prop54
  1
strokes_ogs.tif
102
RTVSPost2010PropOp54
 70
     0
102
RTVSPost2010Prop55
280
     0
102
RTVSPost2010PropOp55
 70
     0
102
RTVSPost2010Prop56
140
1.0
102
RTVSPost2010PropOp56
 70
     0
102
RTVSPost2010Prop57
140
1.0
102
RTVSPost2010PropOp57
 70
     0
102
RTVSPropertyOp0
 70
     0
102
RTVSPropertyOp1
 70
     0
102
RTVSPropertyOp2
 70
     0
102
RTVSPropertyOp3
 70
     0
102
RTVSPropertyOp4
 70
     0
102
RTVSPropertyOp5
 70
     0
102
RTVSPropertyOp6
 70
     0
102
RTVSPropertyOp7
 70
     0
102
RTVSPropertyOp8
 70
     0
102
RTVSPropertyOp9
 70
     0
102
RTVSPropertyOp10
 70
     0
102
RTVSPropertyOp11
 70
     0
102
RTVSPropertyOp12
 70
     0
102
RTVSPropertyOp13
 70
     0
102
RTVSPropertyOp14
 70
     2
102
RTVSPropertyOp15
 70
     0
102
RTVSPropertyOp16
 70
     0
102
RTVSPropertyOp17
 70
     0
102
RTVSPropertyOp18
 70
     0
102
RTVSPropertyOp19
 70
     0
102
RTVSPropertyOp20
 70
     0
102
RTVSPropertyOp21
 70
     0
102
RTVSPropertyOp22
 70
     0
102
RTVSPropertyOp23
 70
     0
102
RTVSPropertyOp24
 70
     0
102
RTVSPropertyOp25
 70
     0
102
RTVSPropertyOp26
 70
     0
102
RTVSPropertyOp27
 70
     0
102
RTVSPropertyOp28
 70
     0
102
RTVSPropertyOp29
 70
     0
102
RTVSPropertyOp30
 70
     0
102
RTVSPropertyOp31
 70
     0
102
RTVSPropertyOp32
 70
     0
102
RTVSPropertyOp33
 70
     0
102
RTVSPropertyOp34
 70
     0
102
RTVSPropertyOp35
 70
     0
102
RTVSPropertyOp36
 70
     0
102
RTVSPropertyOp37
 70
     0
102
RTVSPropertyOp38
 70
     0
102
RTVSPropertyOp39
 70
     0
102
RTVSPropertyOp40
 70
     0
102
RTVSPropertyOp41
 70
     0
102
RTVSPropertyOp42
 70
     0
102
RTVSPropertyOp43
 70
     0
102
RTVSPropertyOp44
 70
     0
102
RTVSPropertyOp45
 70
     0
102
RTVSPropertyOp46
 70
     0
102
RTVSPropertyOp47
 70
     0
102
RTVSPropertyOp48
 70
     0
102
RTVSPropertyOp49
 70
     0
102
RTVSPropertyOp50
 70
     0
102
RTVSPropertyOp51
 70
     0
102
RTVSPropertyOp52
 70
     0
102
RTVSPropertyOp53
 70
     0
102
RTVSPropertyOp54
 70
     0
102
RTVSPropertyOp55
 70
     0
102
RTVSPropertyOp56
 70
     0
102
RTVSPropertyOp57
 70
     0
102
RTVSPropertyOp58
 70
     0
102
RTVSPropertyOp59
 70
     0
102
RTVSPropertyOp60
 70
     0
102
RTVSPropertyOp61
 70
     0
102
RTVSPropertyOp62
 70
     0
  0
XRECORD
  5
30D
102
{ACAD_REACTORS
330
30C
102
}
330
30C
100
AcDbXrecord
280
     1
102
RTVSPost2010Prop28
280
     0
102
RTVSPost2010PropOp28
 70
     1
102
RTVSPost2010Prop29
280
     1
102
RTVSPost2010PropOp29
 70
     1
102
RTVSPost2010Prop30
280
     1
102
RTVSPost2010PropOp30
 70
     1
102
RTVSPost2010Prop31
280
     0
102
RTVSPost2010PropOp31
 70
     1
102
RTVSPost2010Prop32
280
     0
102
RTVSPost2010PropOp32
 70
     1
102
RTVSPost2010Prop33
280
     0
102
RTVSPost2010PropOp33
 70
     1
102
RTVSPost2010Prop34
280
     0
102
RTVSPost2010PropOp34
 70
     1
102
RTVSPost2010Prop35
280
     0
102
RTVSPost2010PropOp35
 70
     1
102
RTVSPost2010Prop36
280
     0
102
RTVSPost2010PropOp36
 70
     1
102
RTVSPost2010Prop37
 90
       50
102
RTVSPost2010PropOp37
 70
     1
102
RTVSPost2010Prop38
140
0.0
102
RTVSPost2010PropOp38
 70
     1
102
RTVSPost2010Prop39
140
1.0
102
RTVSPost2010PropOp39
 70
     1
102
RTVSPost2010Prop40
 90
        0
102
RTVSPost2010PropOp40
 70
     1
102
RTVSPost2010Prop41ColorIndex
 90
       18
102
RTVSPost2010Prop41ColorRGB
 90
        0
102
RTVSPost2010PropOp41
 70
     1
102
RTVSPost2010Prop42
 90
       50
102
RTVSPost2010PropOp42
 70
     1
102
RTVSPost2010Prop43
 90
        3
102
RTVSPost2010PropOp43
 70
     1
102
RTVSPost2010Prop44ColorIndex
 90
        5
102
RTVSPost2010Prop44ColorRGB
 90
      255
102
RTVSPost2010PropOp44
 70
     1
102
RTVSPost2010Prop45
280
     0
102
RTVSPost2010PropOp45
 70
     1
102
RTVSPost2010Prop46
 90
       50
102
RTVSPost2010PropOp46
 70
     1
102
RTVSPost2010Prop47
 90
       50
102
RTVSPost2010PropOp47
 70
     1
102
RTVSPost2010Prop48
 90
       50
102
RTVSPost2010PropOp48
 70
     1
102
RTVSPost2010Prop49
280
     0
102
RTVSPost2010PropOp49
 70
     1
102
RTVSPost2010Prop50
 90
       50
102
RTVSPost2010PropOp50
 70
     1
102
RTVSPost2010Prop51ColorIndex
 90
      256
102
RTVSPost2010Prop51ColorRGB
 90
-16777216
102
RTVSPost2010PropOp51
 70
     0
102
RTVSPost2010Prop52
140
1.0
102
RTVSPost2010PropOp52
 70
     0
102
RTVSPost2010Prop53
 90
        2
102
RTVSPost2010PropOp53
 70
     1
102
RTVSPost2010Prop54
  1
strokes_ogs.tif
102
RTVSPost2010PropOp54
 70
     1
102
RTVSPost2010Prop55
280
     0
102
RTVSPost2010PropOp55
 70
     1
102
RTVSPost2010Prop56
140
1.0
102
RTVSPost2010PropOp56
 70
     1
102
RTVSPost2010Prop57
140
1.0
102
RTVSPost2010PropOp57
 70
     1
102
RTVSPropertyOp0
 70
     1
102
RTVSPropertyOp1
 70
     1
102
RTVSPropertyOp2
 70
     1
102
RTVSPropertyOp3
 70
     1
102
RTVSPropertyOp4
 70
     1
102
RTVSPropertyOp5
 70
     1
102
RTVSPropertyOp6
 70
     1
102
RTVSPropertyOp7
 70
     1
102
RTVSPropertyOp8
 70
     1
102
RTVSPropertyOp9
 70
     1
102
RTVSPropertyOp10
 70
     1
102
RTVSPropertyOp11
 70
     1
102
RTVSPropertyOp12
 70
     1
102
RTVSPropertyOp13
 70
     1
102
RTVSPropertyOp14
 70
     1
102
RTVSPropertyOp15
 70
     1
102
RTVSPropertyOp16
 70
     1
102
RTVSPropertyOp17
 70
     1
102
RTVSPropertyOp18
 70
     1
102
RTVSPropertyOp19
 70
     1
102
RTVSPropertyOp20
 70
     1
102
RTVSPropertyOp21
 70
     1
102
RTVSPropertyOp22
 70
     1
102
RTVSPropertyOp23
 70
     1
102
RTVSPropertyOp24
 70
     1
102
RTVSPropertyOp25
 70
     1
102
RTVSPropertyOp26
 70
     1
102
RTVSPropertyOp27
 70
     1
102
RTVSPropertyOp28
 70
     1
102
RTVSPropertyOp29
 70
     1
102
RTVSPropertyOp30
 70
     1
102
RTVSPropertyOp31
 70
     1
102
RTVSPropertyOp32
 70
     1
102
RTVSPropertyOp33
 70
     1
102
RTVSPropertyOp34
 70
     1
102
RTVSPropertyOp35
 70
     1
102
RTVSPropertyOp36
 70
     1
102
RTVSPropertyOp37
 70
     1
102
RTVSPropertyOp38
 70
     1
102
RTVSPropertyOp39
 70
     1
102
RTVSPropertyOp40
 70
     1
102
RTVSPropertyOp41
 70
     1
102
RTVSPropertyOp42
 70
     1
102
RTVSPropertyOp43
 70
     1
102
RTVSPropertyOp44
 70
     1
102
RTVSPropertyOp45
 70
     1
102
RTVSPropertyOp46
 70
     1
102
RTVSPropertyOp47
 70
     1
102
RTVSPropertyOp48
 70
     1
102
RTVSPropertyOp49
 70
     1
102
RTVSPropertyOp50
 70
     1
102
RTVSPropertyOp51
 70
     0
102
RTVSPropertyOp52
 70
     0
102
RTVSPropertyOp53
 70
     1
102
RTVSPropertyOp54
 70
     1
102
RTVSPropertyOp55
 70
     1
102
RTVSPropertyOp56
 70
     1
102
RTVSPropertyOp57
 70
     1
102
RTVSPropertyOp58
 70
     1
102
RTVSPropertyOp59
 70
     1
102
RTVSPropertyOp60
 70
     1
102
RTVSPropertyOp61
 70
     1
102
RTVSPropertyOp62
 70
     1
  0
XRECORD
  5
323
102
{ACAD_REACTORS
330
322
102
}
330
322
100
AcDbXrecord
280
     1
102
RTVSPost2010Prop28
280
     0
102
RTVSPost2010PropOp28
 70
     1
102
RTVSPost2010Prop29
280
     1
102
RTVSPost2010PropOp29
 70
     1
102
RTVSPost2010Prop30
280
     1
102
RTVSPost2010PropOp30
 70
     1
102
RTVSPost2010Prop31
280
     0
102
RTVSPost2010PropOp31
 70
     1
102
RTVSPost2010Prop32
280
     0
102
RTVSPost2010PropOp32
 70
     1
102
RTVSPost2010Prop33
280
     0
102
RTVSPost2010PropOp33
 70
     1
102
RTVSPost2010Prop34
280
     0
102
RTVSPost2010PropOp34
 70
     1
102
RTVSPost2010Prop35
280
     0
102
RTVSPost2010PropOp35
 70
     1
102
RTVSPost2010Prop36
280
     0
102
RTVSPost2010PropOp36
 70
     1
102
RTVSPost2010Prop37
 90
       50
102
RTVSPost2010PropOp37
 70
     1
102
RTVSPost2010Prop38
140
0.0
102
RTVSPost2010PropOp38
 70
     1
102
RTVSPost2010Prop39
140
1.0
102
RTVSPost2010PropOp39
 70
     1
102
RTVSPost2010Prop40
 90
        0
102
RTVSPost2010PropOp40
 70
     1
102
RTVSPost2010Prop41ColorIndex
 90
       18
102
RTVSPost2010Prop41ColorRGB
 90
        0
102
RTVSPost2010PropOp41
 70
     1
102
RTVSPost2010Prop42
 90
       50
102
RTVSPost2010PropOp42
 70
     1
102
RTVSPost2010Prop43
 90
        3
102
RTVSPost2010PropOp43
 70
     1
102
RTVSPost2010Prop44ColorIndex
 90
        5
102
RTVSPost2010Prop44ColorRGB
 90
      255
102
RTVSPost2010PropOp44
 70
     1
102
RTVSPost2010Prop45
280
     0
102
RTVSPost2010PropOp45
 70
     1
102
RTVSPost2010Prop46
 90
       50
102
RTVSPost2010PropOp46
 70
     1
102
RTVSPost2010Prop47
 90
       50
102
RTVSPost2010PropOp47
 70
     1
102
RTVSPost2010Prop48
 90
       50
102
RTVSPost2010PropOp48
 70
     1
102
RTVSPost2010Prop49
280
     0
102
RTVSPost2010PropOp49
 70
     1
102
RTVSPost2010Prop50
 90
       50
102
RTVSPost2010PropOp50
 70
     1
102
RTVSPost2010Prop51ColorIndex
 90
      256
102
RTVSPost2010Prop51ColorRGB
 90
-16777216
102
RTVSPost2010PropOp51
 70
     0
102
RTVSPost2010Prop52
140
1.0
102
RTVSPost2010PropOp52
 70
     0
102
RTVSPost2010Prop53
 90
        2
102
RTVSPost2010PropOp53
 70
     1
102
RTVSPost2010Prop54
  1
strokes_ogs.tif
102
RTVSPost2010PropOp54
 70
     1
102
RTVSPost2010Prop55
280
     0
102
RTVSPost2010PropOp55
 70
     1
102
RTVSPost2010Prop56
140
1.0
102
RTVSPost2010PropOp56
 70
     1
102
RTVSPost2010Prop57
140
1.0
102
RTVSPost2010PropOp57
 70
     1
102
RTVSPropertyOp0
 70
     1
102
RTVSPropertyOp1
 70
     1
102
RTVSPropertyOp2
 70
     1
102
RTVSPropertyOp3
 70
     1
102
RTVSPropertyOp4
 70
     1
102
RTVSPropertyOp5
 70
     1
102
RTVSPropertyOp6
 70
     1
102
RTVSPropertyOp7
 70
     1
102
RTVSPropertyOp8
 70
     1
102
RTVSPropertyOp9
 70
     1
102
RTVSPropertyOp10
 70
     1
102
RTVSPropertyOp11
 70
     1
102
RTVSPropertyOp12
 70
     1
102
RTVSPropertyOp13
 70
     1
102
RTVSPropertyOp14
 70
     1
102
RTVSPropertyOp15
 70
     1
102
RTVSPropertyOp16
 70
     1
102
RTVSPropertyOp17
 70
     1
102
RTVSPropertyOp18
 70
     1
102
RTVSPropertyOp19
 70
     1
102
RTVSPropertyOp20
 70
     1
102
RTVSPropertyOp21
 70
     1
102
RTVSPropertyOp22
 70
     1
102
RTVSPropertyOp23
 70
     1
102
RTVSPropertyOp24
 70
     1
102
RTVSPropertyOp25
 70
     1
102
RTVSPropertyOp26
 70
     1
102
RTVSPropertyOp27
 70
     1
102
RTVSPropertyOp28
 70
     1
102
RTVSPropertyOp29
 70
     1
102
RTVSPropertyOp30
 70
     1
102
RTVSPropertyOp31
 70
     1
102
RTVSPropertyOp32
 70
     1
102
RTVSPropertyOp33
 70
     1
102
RTVSPropertyOp34
 70
     1
102
RTVSPropertyOp35
 70
     1
102
RTVSPropertyOp36
 70
     1
102
RTVSPropertyOp37
 70
     1
102
RTVSPropertyOp38
 70
     1
102
RTVSPropertyOp39
 70
     1
102
RTVSPropertyOp40
 70
     1
102
RTVSPropertyOp41
 70
     1
102
RTVSPropertyOp42
 70
     1
102
RTVSPropertyOp43
 70
     1
102
RTVSPropertyOp44
 70
     1
102
RTVSPropertyOp45
 70
     1
102
RTVSPropertyOp46
 70
     1
102
RTVSPropertyOp47
 70
     1
102
RTVSPropertyOp48
 70
     1
102
RTVSPropertyOp49
 70
     1
102
RTVSPropertyOp50
 70
     1
102
RTVSPropertyOp51
 70
     0
102
RTVSPropertyOp52
 70
     0
102
RTVSPropertyOp53
 70
     1
102
RTVSPropertyOp54
 70
     1
102
RTVSPropertyOp55
 70
     1
102
RTVSPropertyOp56
 70
     1
102
RTVSPropertyOp57
 70
     1
102
RTVSPropertyOp58
 70
     1
102
RTVSPropertyOp59
 70
     1
102
RTVSPropertyOp60
 70
     1
102
RTVSPropertyOp61
 70
     1
102
RTVSPropertyOp62
 70
     1
  0
XRECORD
  5
321
102
{ACAD_REACTORS
330
320
102
}
330
320
100
AcDbXrecord
280
     1
102
RTVSPost2010Prop28
280
     0
102
RTVSPost2010PropOp28
 70
     1
102
RTVSPost2010Prop29
280
     1
102
RTVSPost2010PropOp29
 70
     1
102
RTVSPost2010Prop30
280
     1
102
RTVSPost2010PropOp30
 70
     1
102
RTVSPost2010Prop31
280
     0
102
RTVSPost2010PropOp31
 70
     1
102
RTVSPost2010Prop32
280
     0
102
RTVSPost2010PropOp32
 70
     1
102
RTVSPost2010Prop33
280
     0
102
RTVSPost2010PropOp33
 70
     1
102
RTVSPost2010Prop34
280
     0
102
RTVSPost2010PropOp34
 70
     1
102
RTVSPost2010Prop35
280
     0
102
RTVSPost2010PropOp35
 70
     1
102
RTVSPost2010Prop36
280
     0
102
RTVSPost2010PropOp36
 70
     1
102
RTVSPost2010Prop37
 90
       50
102
RTVSPost2010PropOp37
 70
     1
102
RTVSPost2010Prop38
140
0.0
102
RTVSPost2010PropOp38
 70
     1
102
RTVSPost2010Prop39
140
1.0
102
RTVSPost2010PropOp39
 70
     1
102
RTVSPost2010Prop40
 90
        0
102
RTVSPost2010PropOp40
 70
     1
102
RTVSPost2010Prop41ColorIndex
 90
       18
102
RTVSPost2010Prop41ColorRGB
 90
        0
102
RTVSPost2010PropOp41
 70
     1
102
RTVSPost2010Prop42
 90
       50
102
RTVSPost2010PropOp42
 70
     1
102
RTVSPost2010Prop43
 90
        3
102
RTVSPost2010PropOp43
 70
     1
102
RTVSPost2010Prop44ColorIndex
 90
        5
102
RTVSPost2010Prop44ColorRGB
 90
      255
102
RTVSPost2010PropOp44
 70
     1
102
RTVSPost2010Prop45
280
     0
102
RTVSPost2010PropOp45
 70
     1
102
RTVSPost2010Prop46
 90
       50
102
RTVSPost2010PropOp46
 70
     1
102
RTVSPost2010Prop47
 90
       50
102
RTVSPost2010PropOp47
 70
     1
102
RTVSPost2010Prop48
 90
       50
102
RTVSPost2010PropOp48
 70
     1
102
RTVSPost2010Prop49
280
     0
102
RTVSPost2010PropOp49
 70
     1
102
RTVSPost2010Prop50
 90
       50
102
RTVSPost2010PropOp50
 70
     1
102
RTVSPost2010Prop51ColorIndex
 90
      256
102
RTVSPost2010Prop51ColorRGB
 90
-16777216
102
RTVSPost2010PropOp51
 70
     0
102
RTVSPost2010Prop52
140
1.0
102
RTVSPost2010PropOp52
 70
     0
102
RTVSPost2010Prop53
 90
        2
102
RTVSPost2010PropOp53
 70
     1
102
RTVSPost2010Prop54
  1
strokes_ogs.tif
102
RTVSPost2010PropOp54
 70
     1
102
RTVSPost2010Prop55
280
     0
102
RTVSPost2010PropOp55
 70
     1
102
RTVSPost2010Prop56
140
1.0
102
RTVSPost2010PropOp56
 70
     1
102
RTVSPost2010Prop57
140
1.0
102
RTVSPost2010PropOp57
 70
     1
102
RTVSPropertyOp0
 70
     1
102
RTVSPropertyOp1
 70
     1
102
RTVSPropertyOp2
 70
     1
102
RTVSPropertyOp3
 70
     1
102
RTVSPropertyOp4
 70
     1
102
RTVSPropertyOp5
 70
     1
102
RTVSPropertyOp6
 70
     1
102
RTVSPropertyOp7
 70
     1
102
RTVSPropertyOp8
 70
     1
102
RTVSPropertyOp9
 70
     1
102
RTVSPropertyOp10
 70
     1
102
RTVSPropertyOp11
 70
     1
102
RTVSPropertyOp12
 70
     1
102
RTVSPropertyOp13
 70
     1
102
RTVSPropertyOp14
 70
     1
102
RTVSPropertyOp15
 70
     1
102
RTVSPropertyOp16
 70
     1
102
RTVSPropertyOp17
 70
     1
102
RTVSPropertyOp18
 70
     1
102
RTVSPropertyOp19
 70
     1
102
RTVSPropertyOp20
 70
     1
102
RTVSPropertyOp21
 70
     1
102
RTVSPropertyOp22
 70
     1
102
RTVSPropertyOp23
 70
     1
102
RTVSPropertyOp24
 70
     1
102
RTVSPropertyOp25
 70
     1
102
RTVSPropertyOp26
 70
     1
102
RTVSPropertyOp27
 70
     1
102
RTVSPropertyOp28
 70
     1
102
RTVSPropertyOp29
 70
     1
102
RTVSPropertyOp30
 70
     1
102
RTVSPropertyOp31
 70
     1
102
RTVSPropertyOp32
 70
     1
102
RTVSPropertyOp33
 70
     1
102
RTVSPropertyOp34
 70
     1
102
RTVSPropertyOp35
 70
     1
102
RTVSPropertyOp36
 70
     1
102
RTVSPropertyOp37
 70
     1
102
RTVSPropertyOp38
 70
     1
102
RTVSPropertyOp39
 70
     1
102
RTVSPropertyOp40
 70
     1
102
RTVSPropertyOp41
 70
     1
102
RTVSPropertyOp42
 70
     1
102
RTVSPropertyOp43
 70
     1
102
RTVSPropertyOp44
 70
     1
102
RTVSPropertyOp45
 70
     1
102
RTVSPropertyOp46
 70
     1
102
RTVSPropertyOp47
 70
     1
102
RTVSPropertyOp48
 70
     1
102
RTVSPropertyOp49
 70
     1
102
RTVSPropertyOp50
 70
     1
102
RTVSPropertyOp51
 70
     0
102
RTVSPropertyOp52
 70
     0
102
RTVSPropertyOp53
 70
     1
102
RTVSPropertyOp54
 70
     1
102
RTVSPropertyOp55
 70
     1
102
RTVSPropertyOp56
 70
     1
102
RTVSPropertyOp57
 70
     1
102
RTVSPropertyOp58
 70
     1
102
RTVSPropertyOp59
 70
     1
102
RTVSPropertyOp60
 70
     1
102
RTVSPropertyOp61
 70
     1
102
RTVSPropertyOp62
 70
     1
  0
XRECORD
  5
31B
102
{ACAD_REACTORS
330
31A
102
}
330
31A
100
AcDbXrecord
280
     1
102
RTVSPost2010Prop28
280
     0
102
RTVSPost2010PropOp28
 70
     1
102
RTVSPost2010Prop29
280
     1
102
RTVSPost2010PropOp29
 70
     1
102
RTVSPost2010Prop30
280
     1
102
RTVSPost2010PropOp30
 70
     1
102
RTVSPost2010Prop31
280
     0
102
RTVSPost2010PropOp31
 70
     1
102
RTVSPost2010Prop32
280
     0
102
RTVSPost2010PropOp32
 70
     1
102
RTVSPost2010Prop33
280
     0
102
RTVSPost2010PropOp33
 70
     1
102
RTVSPost2010Prop34
280
     0
102
RTVSPost2010PropOp34
 70
     1
102
RTVSPost2010Prop35
280
     0
102
RTVSPost2010PropOp35
 70
     1
102
RTVSPost2010Prop36
280
     0
102
RTVSPost2010PropOp36
 70
     1
102
RTVSPost2010Prop37
 90
       50
102
RTVSPost2010PropOp37
 70
     1
102
RTVSPost2010Prop38
140
0.0
102
RTVSPost2010PropOp38
 70
     1
102
RTVSPost2010Prop39
140
1.0
102
RTVSPost2010PropOp39
 70
     1
102
RTVSPost2010Prop40
 90
        0
102
RTVSPost2010PropOp40
 70
     1
102
RTVSPost2010Prop41ColorIndex
 90
       18
102
RTVSPost2010Prop41ColorRGB
 90
        0
102
RTVSPost2010PropOp41
 70
     1
102
RTVSPost2010Prop42
 90
       50
102
RTVSPost2010PropOp42
 70
     1
102
RTVSPost2010Prop43
 90
        3
102
RTVSPost2010PropOp43
 70
     1
102
RTVSPost2010Prop44ColorIndex
 90
        5
102
RTVSPost2010Prop44ColorRGB
 90
      255
102
RTVSPost2010PropOp44
 70
     1
102
RTVSPost2010Prop45
280
     0
102
RTVSPost2010PropOp45
 70
     1
102
RTVSPost2010Prop46
 90
       50
102
RTVSPost2010PropOp46
 70
     1
102
RTVSPost2010Prop47
 90
       50
102
RTVSPost2010PropOp47
 70
     1
102
RTVSPost2010Prop48
 90
       50
102
RTVSPost2010PropOp48
 70
     1
102
RTVSPost2010Prop49
280
     0
102
RTVSPost2010PropOp49
 70
     1
102
RTVSPost2010Prop50
 90
       50
102
RTVSPost2010PropOp50
 70
     1
102
RTVSPost2010Prop51ColorIndex
 90
      256
102
RTVSPost2010Prop51ColorRGB
 90
-16777216
102
RTVSPost2010PropOp51
 70
     0
102
RTVSPost2010Prop52
140
1.0
102
RTVSPost2010PropOp52
 70
     0
102
RTVSPost2010Prop53
 90
        2
102
RTVSPost2010PropOp53
 70
     1
102
RTVSPost2010Prop54
  1
strokes_ogs.tif
102
RTVSPost2010PropOp54
 70
     1
102
RTVSPost2010Prop55
280
     0
102
RTVSPost2010PropOp55
 70
     1
102
RTVSPost2010Prop56
140
1.0
102
RTVSPost2010PropOp56
 70
     1
102
RTVSPost2010Prop57
140
1.0
102
RTVSPost2010PropOp57
 70
     1
102
RTVSPropertyOp0
 70
     1
102
RTVSPropertyOp1
 70
     1
102
RTVSPropertyOp2
 70
     1
102
RTVSPropertyOp3
 70
     1
102
RTVSPropertyOp4
 70
     1
102
RTVSPropertyOp5
 70
     1
102
RTVSPropertyOp6
 70
     1
102
RTVSPropertyOp7
 70
     1
102
RTVSPropertyOp8
 70
     1
102
RTVSPropertyOp9
 70
     1
102
RTVSPropertyOp10
 70
     1
102
RTVSPropertyOp11
 70
     1
102
RTVSPropertyOp12
 70
     1
102
RTVSPropertyOp13
 70
     1
102
RTVSPropertyOp14
 70
     1
102
RTVSPropertyOp15
 70
     1
102
RTVSPropertyOp16
 70
     1
102
RTVSPropertyOp17
 70
     1
102
RTVSPropertyOp18
 70
     1
102
RTVSPropertyOp19
 70
     1
102
RTVSPropertyOp20
 70
     1
102
RTVSPropertyOp21
 70
     1
102
RTVSPropertyOp22
 70
     1
102
RTVSPropertyOp23
 70
     1
102
RTVSPropertyOp24
 70
     1
102
RTVSPropertyOp25
 70
     1
102
RTVSPropertyOp26
 70
     1
102
RTVSPropertyOp27
 70
     1
102
RTVSPropertyOp28
 70
     1
102
RTVSPropertyOp29
 70
     1
102
RTVSPropertyOp30
 70
     1
102
RTVSPropertyOp31
 70
     1
102
RTVSPropertyOp32
 70
     1
102
RTVSPropertyOp33
 70
     1
102
RTVSPropertyOp34
 70
     1
102
RTVSPropertyOp35
 70
     1
102
RTVSPropertyOp36
 70
     1
102
RTVSPropertyOp37
 70
     1
102
RTVSPropertyOp38
 70
     1
102
RTVSPropertyOp39
 70
     1
102
RTVSPropertyOp40
 70
     1
102
RTVSPropertyOp41
 70
     1
102
RTVSPropertyOp42
 70
     1
102
RTVSPropertyOp43
 70
     1
102
RTVSPropertyOp44
 70
     1
102
RTVSPropertyOp45
 70
     1
102
RTVSPropertyOp46
 70
     1
102
RTVSPropertyOp47
 70
     1
102
RTVSPropertyOp48
 70
     1
102
RTVSPropertyOp49
 70
     1
102
RTVSPropertyOp50
 70
     1
102
RTVSPropertyOp51
 70
     0
102
RTVSPropertyOp52
 70
     0
102
RTVSPropertyOp53
 70
     1
102
RTVSPropertyOp54
 70
     1
102
RTVSPropertyOp55
 70
     1
102
RTVSPropertyOp56
 70
     1
102
RTVSPropertyOp57
 70
     1
102
RTVSPropertyOp58
 70
     1
102
RTVSPropertyOp59
 70
     1
102
RTVSPropertyOp60
 70
     1
102
RTVSPropertyOp61
 70
     1
102
RTVSPropertyOp62
 70
     1
  0
XRECORD
  5
31D
102
{ACAD_REACTORS
330
31C
102
}
330
31C
100
AcDbXrecord
280
     1
102
RTVSPost2010Prop28
280
     0
102
RTVSPost2010PropOp28
 70
     1
102
RTVSPost2010Prop29
280
     1
102
RTVSPost2010PropOp29
 70
     1
102
RTVSPost2010Prop30
280
     1
102
RTVSPost2010PropOp30
 70
     1
102
RTVSPost2010Prop31
280
     0
102
RTVSPost2010PropOp31
 70
     1
102
RTVSPost2010Prop32
280
     0
102
RTVSPost2010PropOp32
 70
     1
102
RTVSPost2010Prop33
280
     0
102
RTVSPost2010PropOp33
 70
     1
102
RTVSPost2010Prop34
280
     0
102
RTVSPost2010PropOp34
 70
     1
102
RTVSPost2010Prop35
280
     0
102
RTVSPost2010PropOp35
 70
     1
102
RTVSPost2010Prop36
280
     0
102
RTVSPost2010PropOp36
 70
     1
102
RTVSPost2010Prop37
 90
       50
102
RTVSPost2010PropOp37
 70
     1
102
RTVSPost2010Prop38
140
0.0
102
RTVSPost2010PropOp38
 70
     1
102
RTVSPost2010Prop39
140
1.0
102
RTVSPost2010PropOp39
 70
     1
102
RTVSPost2010Prop40
 90
        0
102
RTVSPost2010PropOp40
 70
     1
102
RTVSPost2010Prop41ColorIndex
 90
       18
102
RTVSPost2010Prop41ColorRGB
 90
        0
102
RTVSPost2010PropOp41
 70
     1
102
RTVSPost2010Prop42
 90
       50
102
RTVSPost2010PropOp42
 70
     1
102
RTVSPost2010Prop43
 90
        3
102
RTVSPost2010PropOp43
 70
     1
102
RTVSPost2010Prop44ColorIndex
 90
        5
102
RTVSPost2010Prop44ColorRGB
 90
      255
102
RTVSPost2010PropOp44
 70
     1
102
RTVSPost2010Prop45
280
     0
102
RTVSPost2010PropOp45
 70
     1
102
RTVSPost2010Prop46
 90
       50
102
RTVSPost2010PropOp46
 70
     1
102
RTVSPost2010Prop47
 90
       50
102
RTVSPost2010PropOp47
 70
     1
102
RTVSPost2010Prop48
 90
       50
102
RTVSPost2010PropOp48
 70
     1
102
RTVSPost2010Prop49
280
     0
102
RTVSPost2010PropOp49
 70
     1
102
RTVSPost2010Prop50
 90
       50
102
RTVSPost2010PropOp50
 70
     1
102
RTVSPost2010Prop51ColorIndex
 90
      256
102
RTVSPost2010Prop51ColorRGB
 90
-16777216
102
RTVSPost2010PropOp51
 70
     0
102
RTVSPost2010Prop52
140
1.0
102
RTVSPost2010PropOp52
 70
     0
102
RTVSPost2010Prop53
 90
        2
102
RTVSPost2010PropOp53
 70
     1
102
RTVSPost2010Prop54
  1
strokes_ogs.tif
102
RTVSPost2010PropOp54
 70
     1
102
RTVSPost2010Prop55
280
     0
102
RTVSPost2010PropOp55
 70
     1
102
RTVSPost2010Prop56
140
1.0
102
RTVSPost2010PropOp56
 70
     1
102
RTVSPost2010Prop57
140
1.0
102
RTVSPost2010PropOp57
 70
     1
102
RTVSPropertyOp0
 70
     1
102
RTVSPropertyOp1
 70
     1
102
RTVSPropertyOp2
 70
     1
102
RTVSPropertyOp3
 70
     1
102
RTVSPropertyOp4
 70
     1
102
RTVSPropertyOp5
 70
     1
102
RTVSPropertyOp6
 70
     1
102
RTVSPropertyOp7
 70
     1
102
RTVSPropertyOp8
 70
     1
102
RTVSPropertyOp9
 70
     1
102
RTVSPropertyOp10
 70
     1
102
RTVSPropertyOp11
 70
     1
102
RTVSPropertyOp12
 70
     1
102
RTVSPropertyOp13
 70
     1
102
RTVSPropertyOp14
 70
     1
102
RTVSPropertyOp15
 70
     1
102
RTVSPropertyOp16
 70
     1
102
RTVSPropertyOp17
 70
     1
102
RTVSPropertyOp18
 70
     1
102
RTVSPropertyOp19
 70
     1
102
RTVSPropertyOp20
 70
     1
102
RTVSPropertyOp21
 70
     1
102
RTVSPropertyOp22
 70
     1
102
RTVSPropertyOp23
 70
     1
102
RTVSPropertyOp24
 70
     1
102
RTVSPropertyOp25
 70
     1
102
RTVSPropertyOp26
 70
     1
102
RTVSPropertyOp27
 70
     1
102
RTVSPropertyOp28
 70
     1
102
RTVSPropertyOp29
 70
     1
102
RTVSPropertyOp30
 70
     1
102
RTVSPropertyOp31
 70
     1
102
RTVSPropertyOp32
 70
     1
102
RTVSPropertyOp33
 70
     1
102
RTVSPropertyOp34
 70
     1
102
RTVSPropertyOp35
 70
     1
102
RTVSPropertyOp36
 70
     1
102
RTVSPropertyOp37
 70
     1
102
RTVSPropertyOp38
 70
     1
102
RTVSPropertyOp39
 70
     1
102
RTVSPropertyOp40
 70
     1
102
RTVSPropertyOp41
 70
     1
102
RTVSPropertyOp42
 70
     1
102
RTVSPropertyOp43
 70
     1
102
RTVSPropertyOp44
 70
     1
102
RTVSPropertyOp45
 70
     1
102
RTVSPropertyOp46
 70
     1
102
RTVSPropertyOp47
 70
     1
102
RTVSPropertyOp48
 70
     1
102
RTVSPropertyOp49
 70
     1
102
RTVSPropertyOp50
 70
     1
102
RTVSPropertyOp51
 70
     0
102
RTVSPropertyOp52
 70
     0
102
RTVSPropertyOp53
 70
     1
102
RTVSPropertyOp54
 70
     1
102
RTVSPropertyOp55
 70
     1
102
RTVSPropertyOp56
 70
     1
102
RTVSPropertyOp57
 70
     1
102
RTVSPropertyOp58
 70
     1
102
RTVSPropertyOp59
 70
     1
102
RTVSPropertyOp60
 70
     1
102
RTVSPropertyOp61
 70
     1
102
RTVSPropertyOp62
 70
     1
  0
XRECORD
  5
313
102
{ACAD_REACTORS
330
312
102
}
330
312
100
AcDbXrecord
280
     1
102
RTVSPost2010Prop28
280
     0
102
RTVSPost2010PropOp28
 70
     1
102
RTVSPost2010Prop29
280
     1
102
RTVSPost2010PropOp29
 70
     1
102
RTVSPost2010Prop30
280
     1
102
RTVSPost2010PropOp30
 70
     1
102
RTVSPost2010Prop31
280
     0
102
RTVSPost2010PropOp31
 70
     1
102
RTVSPost2010Prop32
280
     0
102
RTVSPost2010PropOp32
 70
     1
102
RTVSPost2010Prop33
280
     0
102
RTVSPost2010PropOp33
 70
     1
102
RTVSPost2010Prop34
280
     0
102
RTVSPost2010PropOp34
 70
     1
102
RTVSPost2010Prop35
280
     0
102
RTVSPost2010PropOp35
 70
     1
102
RTVSPost2010Prop36
280
     0
102
RTVSPost2010PropOp36
 70
     1
102
RTVSPost2010Prop37
 90
       50
102
RTVSPost2010PropOp37
 70
     1
102
RTVSPost2010Prop38
140
0.0
102
RTVSPost2010PropOp38
 70
     1
102
RTVSPost2010Prop39
140
1.0
102
RTVSPost2010PropOp39
 70
     1
102
RTVSPost2010Prop40
 90
        0
102
RTVSPost2010PropOp40
 70
     1
102
RTVSPost2010Prop41ColorIndex
 90
       18
102
RTVSPost2010Prop41ColorRGB
 90
        0
102
RTVSPost2010PropOp41
 70
     1
102
RTVSPost2010Prop42
 90
       50
102
RTVSPost2010PropOp42
 70
     1
102
RTVSPost2010Prop43
 90
        3
102
RTVSPost2010PropOp43
 70
     1
102
RTVSPost2010Prop44ColorIndex
 90
        5
102
RTVSPost2010Prop44ColorRGB
 90
      255
102
RTVSPost2010PropOp44
 70
     1
102
RTVSPost2010Prop45
280
     0
102
RTVSPost2010PropOp45
 70
     1
102
RTVSPost2010Prop46
 90
       50
102
RTVSPost2010PropOp46
 70
     1
102
RTVSPost2010Prop47
 90
       50
102
RTVSPost2010PropOp47
 70
     1
102
RTVSPost2010Prop48
 90
       50
102
RTVSPost2010PropOp48
 70
     1
102
RTVSPost2010Prop49
280
     0
102
RTVSPost2010PropOp49
 70
     1
102
RTVSPost2010Prop50
 90
       50
102
RTVSPost2010PropOp50
 70
     1
102
RTVSPost2010Prop51ColorIndex
 90
      256
102
RTVSPost2010Prop51ColorRGB
 90
-16777216
102
RTVSPost2010PropOp51
 70
     0
102
RTVSPost2010Prop52
140
1.0
102
RTVSPost2010PropOp52
 70
     0
102
RTVSPost2010Prop53
 90
        2
102
RTVSPost2010PropOp53
 70
     1
102
RTVSPost2010Prop54
  1
strokes_ogs.tif
102
RTVSPost2010PropOp54
 70
     1
102
RTVSPost2010Prop55
280
     0
102
RTVSPost2010PropOp55
 70
     1
102
RTVSPost2010Prop56
140
1.0
102
RTVSPost2010PropOp56
 70
     1
102
RTVSPost2010Prop57
140
1.0
102
RTVSPost2010PropOp57
 70
     1
102
RTVSPropertyOp0
 70
     1
102
RTVSPropertyOp1
 70
     1
102
RTVSPropertyOp2
 70
     1
102
RTVSPropertyOp3
 70
     1
102
RTVSPropertyOp4
 70
     1
102
RTVSPropertyOp5
 70
     1
102
RTVSPropertyOp6
 70
     1
102
RTVSPropertyOp7
 70
     1
102
RTVSPropertyOp8
 70
     1
102
RTVSPropertyOp9
 70
     1
102
RTVSPropertyOp10
 70
     1
102
RTVSPropertyOp11
 70
     1
102
RTVSPropertyOp12
 70
     1
102
RTVSPropertyOp13
 70
     1
102
RTVSPropertyOp14
 70
     1
102
RTVSPropertyOp15
 70
     1
102
RTVSPropertyOp16
 70
     1
102
RTVSPropertyOp17
 70
     1
102
RTVSPropertyOp18
 70
     1
102
RTVSPropertyOp19
 70
     1
102
RTVSPropertyOp20
 70
     1
102
RTVSPropertyOp21
 70
     1
102
RTVSPropertyOp22
 70
     1
102
RTVSPropertyOp23
 70
     1
102
RTVSPropertyOp24
 70
     1
102
RTVSPropertyOp25
 70
     1
102
RTVSPropertyOp26
 70
     1
102
RTVSPropertyOp27
 70
     1
102
RTVSPropertyOp28
 70
     1
102
RTVSPropertyOp29
 70
     1
102
RTVSPropertyOp30
 70
     1
102
RTVSPropertyOp31
 70
     1
102
RTVSPropertyOp32
 70
     1
102
RTVSPropertyOp33
 70
     1
102
RTVSPropertyOp34
 70
     1
102
RTVSPropertyOp35
 70
     1
102
RTVSPropertyOp36
 70
     1
102
RTVSPropertyOp37
 70
     1
102
RTVSPropertyOp38
 70
     1
102
RTVSPropertyOp39
 70
     1
102
RTVSPropertyOp40
 70
     1
102
RTVSPropertyOp41
 70
     1
102
RTVSPropertyOp42
 70
     1
102
RTVSPropertyOp43
 70
     1
102
RTVSPropertyOp44
 70
     1
102
RTVSPropertyOp45
 70
     1
102
RTVSPropertyOp46
 70
     1
102
RTVSPropertyOp47
 70
     1
102
RTVSPropertyOp48
 70
     1
102
RTVSPropertyOp49
 70
     1
102
RTVSPropertyOp50
 70
     1
102
RTVSPropertyOp51
 70
     0
102
RTVSPropertyOp52
 70
     0
102
RTVSPropertyOp53
 70
     1
102
RTVSPropertyOp54
 70
     1
102
RTVSPropertyOp55
 70
     1
102
RTVSPropertyOp56
 70
     1
102
RTVSPropertyOp57
 70
     1
102
RTVSPropertyOp58
 70
     1
102
RTVSPropertyOp59
 70
     1
102
RTVSPropertyOp60
 70
     1
102
RTVSPropertyOp61
 70
     1
102
RTVSPropertyOp62
 70
     1
  0
XRECORD
  5
307
102
{ACAD_REACTORS
330
306
102
}
330
306
100
AcDbXrecord
280
     1
102
RTVSPost2010Prop28
280
     0
102
RTVSPost2010PropOp28
 70
     1
102
RTVSPost2010Prop29
280
     1
102
RTVSPost2010PropOp29
 70
     1
102
RTVSPost2010Prop30
280
     1
102
RTVSPost2010PropOp30
 70
     1
102
RTVSPost2010Prop31
280
     0
102
RTVSPost2010PropOp31
 70
     1
102
RTVSPost2010Prop32
280
     0
102
RTVSPost2010PropOp32
 70
     1
102
RTVSPost2010Prop33
280
     0
102
RTVSPost2010PropOp33
 70
     1
102
RTVSPost2010Prop34
280
     0
102
RTVSPost2010PropOp34
 70
     1
102
RTVSPost2010Prop35
280
     0
102
RTVSPost2010PropOp35
 70
     1
102
RTVSPost2010Prop36
280
     0
102
RTVSPost2010PropOp36
 70
     1
102
RTVSPost2010Prop37
 90
       50
102
RTVSPost2010PropOp37
 70
     1
102
RTVSPost2010Prop38
140
0.0
102
RTVSPost2010PropOp38
 70
     1
102
RTVSPost2010Prop39
140
1.0
102
RTVSPost2010PropOp39
 70
     1
102
RTVSPost2010Prop40
 90
        0
102
RTVSPost2010PropOp40
 70
     1
102
RTVSPost2010Prop41ColorIndex
 90
       18
102
RTVSPost2010Prop41ColorRGB
 90
        0
102
RTVSPost2010PropOp41
 70
     1
102
RTVSPost2010Prop42
 90
       50
102
RTVSPost2010PropOp42
 70
     1
102
RTVSPost2010Prop43
 90
        3
102
RTVSPost2010PropOp43
 70
     1
102
RTVSPost2010Prop44ColorIndex
 90
        5
102
RTVSPost2010Prop44ColorRGB
 90
      255
102
RTVSPost2010PropOp44
 70
     1
102
RTVSPost2010Prop45
280
     0
102
RTVSPost2010PropOp45
 70
     1
102
RTVSPost2010Prop46
 90
       50
102
RTVSPost2010PropOp46
 70
     1
102
RTVSPost2010Prop47
 90
       50
102
RTVSPost2010PropOp47
 70
     1
102
RTVSPost2010Prop48
 90
       50
102
RTVSPost2010PropOp48
 70
     1
102
RTVSPost2010Prop49
280
     0
102
RTVSPost2010PropOp49
 70
     1
102
RTVSPost2010Prop50
 90
       50
102
RTVSPost2010PropOp50
 70
     1
102
RTVSPost2010Prop51ColorIndex
 90
      256
102
RTVSPost2010Prop51ColorRGB
 90
-16777216
102
RTVSPost2010PropOp51
 70
     0
102
RTVSPost2010Prop52
140
1.0
102
RTVSPost2010PropOp52
 70
     0
102
RTVSPost2010Prop53
 90
        2
102
RTVSPost2010PropOp53
 70
     1
102
RTVSPost2010Prop54
  1
strokes_ogs.tif
102
RTVSPost2010PropOp54
 70
     1
102
RTVSPost2010Prop55
280
     0
102
RTVSPost2010PropOp55
 70
     1
102
RTVSPost2010Prop56
140
1.0
102
RTVSPost2010PropOp56
 70
     1
102
RTVSPost2010Prop57
140
1.0
102
RTVSPost2010PropOp57
 70
     1
102
RTVSPropertyOp0
 70
     1
102
RTVSPropertyOp1
 70
     1
102
RTVSPropertyOp2
 70
     1
102
RTVSPropertyOp3
 70
     1
102
RTVSPropertyOp4
 70
     1
102
RTVSPropertyOp5
 70
     1
102
RTVSPropertyOp6
 70
     1
102
RTVSPropertyOp7
 70
     1
102
RTVSPropertyOp8
 70
     1
102
RTVSPropertyOp9
 70
     1
102
RTVSPropertyOp10
 70
     1
102
RTVSPropertyOp11
 70
     1
102
RTVSPropertyOp12
 70
     1
102
RTVSPropertyOp13
 70
     1
102
RTVSPropertyOp14
 70
     1
102
RTVSPropertyOp15
 70
     1
102
RTVSPropertyOp16
 70
     1
102
RTVSPropertyOp17
 70
     1
102
RTVSPropertyOp18
 70
     1
102
RTVSPropertyOp19
 70
     1
102
RTVSPropertyOp20
 70
     1
102
RTVSPropertyOp21
 70
     1
102
RTVSPropertyOp22
 70
     1
102
RTVSPropertyOp23
 70
     1
102
RTVSPropertyOp24
 70
     1
102
RTVSPropertyOp25
 70
     1
102
RTVSPropertyOp26
 70
     1
102
RTVSPropertyOp27
 70
     1
102
RTVSPropertyOp28
 70
     1
102
RTVSPropertyOp29
 70
     1
102
RTVSPropertyOp30
 70
     1
102
RTVSPropertyOp31
 70
     1
102
RTVSPropertyOp32
 70
     1
102
RTVSPropertyOp33
 70
     1
102
RTVSPropertyOp34
 70
     1
102
RTVSPropertyOp35
 70
     1
102
RTVSPropertyOp36
 70
     1
102
RTVSPropertyOp37
 70
     1
102
RTVSPropertyOp38
 70
     1
102
RTVSPropertyOp39
 70
     1
102
RTVSPropertyOp40
 70
     1
102
RTVSPropertyOp41
 70
     1
102
RTVSPropertyOp42
 70
     1
102
RTVSPropertyOp43
 70
     1
102
RTVSPropertyOp44
 70
     1
102
RTVSPropertyOp45
 70
     1
102
RTVSPropertyOp46
 70
     1
102
RTVSPropertyOp47
 70
     1
102
RTVSPropertyOp48
 70
     1
102
RTVSPropertyOp49
 70
     1
102
RTVSPropertyOp50
 70
     1
102
RTVSPropertyOp51
 70
     0
102
RTVSPropertyOp52
 70
     0
102
RTVSPropertyOp53
 70
     1
102
RTVSPropertyOp54
 70
     1
102
RTVSPropertyOp55
 70
     1
102
RTVSPropertyOp56
 70
     1
102
RTVSPropertyOp57
 70
     1
102
RTVSPropertyOp58
 70
     1
102
RTVSPropertyOp59
 70
     1
102
RTVSPropertyOp60
 70
     1
102
RTVSPropertyOp61
 70
     1
102
RTVSPropertyOp62
 70
     1
  0
XRECORD
  5
31F
102
{ACAD_REACTORS
330
31E
102
}
330
31E
100
AcDbXrecord
280
     1
102
RTVSPost2010Prop28
280
     0
102
RTVSPost2010PropOp28
 70
     1
102
RTVSPost2010Prop29
280
     1
102
RTVSPost2010PropOp29
 70
     1
102
RTVSPost2010Prop30
280
     1
102
RTVSPost2010PropOp30
 70
     1
102
RTVSPost2010Prop31
280
     0
102
RTVSPost2010PropOp31
 70
     1
102
RTVSPost2010Prop32
280
     0
102
RTVSPost2010PropOp32
 70
     1
102
RTVSPost2010Prop33
280
     0
102
RTVSPost2010PropOp33
 70
     1
102
RTVSPost2010Prop34
280
     0
102
RTVSPost2010PropOp34
 70
     1
102
RTVSPost2010Prop35
280
     0
102
RTVSPost2010PropOp35
 70
     1
102
RTVSPost2010Prop36
280
     0
102
RTVSPost2010PropOp36
 70
     1
102
RTVSPost2010Prop37
 90
       50
102
RTVSPost2010PropOp37
 70
     1
102
RTVSPost2010Prop38
140
0.0
102
RTVSPost2010PropOp38
 70
     1
102
RTVSPost2010Prop39
140
1.0
102
RTVSPost2010PropOp39
 70
     1
102
RTVSPost2010Prop40
 90
        0
102
RTVSPost2010PropOp40
 70
     1
102
RTVSPost2010Prop41ColorIndex
 90
       18
102
RTVSPost2010Prop41ColorRGB
 90
        0
102
RTVSPost2010PropOp41
 70
     1
102
RTVSPost2010Prop42
 90
       50
102
RTVSPost2010PropOp42
 70
     1
102
RTVSPost2010Prop43
 90
        3
102
RTVSPost2010PropOp43
 70
     1
102
RTVSPost2010Prop44ColorIndex
 90
        5
102
RTVSPost2010Prop44ColorRGB
 90
      255
102
RTVSPost2010PropOp44
 70
     1
102
RTVSPost2010Prop45
280
     0
102
RTVSPost2010PropOp45
 70
     1
102
RTVSPost2010Prop46
 90
       50
102
RTVSPost2010PropOp46
 70
     1
102
RTVSPost2010Prop47
 90
       50
102
RTVSPost2010PropOp47
 70
     1
102
RTVSPost2010Prop48
 90
       50
102
RTVSPost2010PropOp48
 70
     1
102
RTVSPost2010Prop49
280
     0
102
RTVSPost2010PropOp49
 70
     1
102
RTVSPost2010Prop50
 90
       50
102
RTVSPost2010PropOp50
 70
     1
102
RTVSPost2010Prop51ColorIndex
 90
      256
102
RTVSPost2010Prop51ColorRGB
 90
-16777216
102
RTVSPost2010PropOp51
 70
     0
102
RTVSPost2010Prop52
140
1.0
102
RTVSPost2010PropOp52
 70
     0
102
RTVSPost2010Prop53
 90
        2
102
RTVSPost2010PropOp53
 70
     1
102
RTVSPost2010Prop54
  1
strokes_ogs.tif
102
RTVSPost2010PropOp54
 70
     1
102
RTVSPost2010Prop55
280
     0
102
RTVSPost2010PropOp55
 70
     1
102
RTVSPost2010Prop56
140
1.0
102
RTVSPost2010PropOp56
 70
     1
102
RTVSPost2010Prop57
140
1.0
102
RTVSPost2010PropOp57
 70
     1
102
RTVSPropertyOp0
 70
     1
102
RTVSPropertyOp1
 70
     1
102
RTVSPropertyOp2
 70
     1
102
RTVSPropertyOp3
 70
     1
102
RTVSPropertyOp4
 70
     1
102
RTVSPropertyOp5
 70
     1
102
RTVSPropertyOp6
 70
     1
102
RTVSPropertyOp7
 70
     1
102
RTVSPropertyOp8
 70
     1
102
RTVSPropertyOp9
 70
     1
102
RTVSPropertyOp10
 70
     1
102
RTVSPropertyOp11
 70
     1
102
RTVSPropertyOp12
 70
     1
102
RTVSPropertyOp13
 70
     1
102
RTVSPropertyOp14
 70
     1
102
RTVSPropertyOp15
 70
     1
102
RTVSPropertyOp16
 70
     1
102
RTVSPropertyOp17
 70
     1
102
RTVSPropertyOp18
 70
     1
102
RTVSPropertyOp19
 70
     1
102
RTVSPropertyOp20
 70
     1
102
RTVSPropertyOp21
 70
     1
102
RTVSPropertyOp22
 70
     1
102
RTVSPropertyOp23
 70
     1
102
RTVSPropertyOp24
 70
     1
102
RTVSPropertyOp25
 70
     1
102
RTVSPropertyOp26
 70
     1
102
RTVSPropertyOp27
 70
     1
102
RTVSPropertyOp28
 70
     1
102
RTVSPropertyOp29
 70
     1
102
RTVSPropertyOp30
 70
     1
102
RTVSPropertyOp31
 70
     1
102
RTVSPropertyOp32
 70
     1
102
RTVSPropertyOp33
 70
     1
102
RTVSPropertyOp34
 70
     1
102
RTVSPropertyOp35
 70
     1
102
RTVSPropertyOp36
 70
     1
102
RTVSPropertyOp37
 70
     1
102
RTVSPropertyOp38
 70
     1
102
RTVSPropertyOp39
 70
     1
102
RTVSPropertyOp40
 70
     1
102
RTVSPropertyOp41
 70
     1
102
RTVSPropertyOp42
 70
     1
102
RTVSPropertyOp43
 70
     1
102
RTVSPropertyOp44
 70
     1
102
RTVSPropertyOp45
 70
     1
102
RTVSPropertyOp46
 70
     1
102
RTVSPropertyOp47
 70
     1
102
RTVSPropertyOp48
 70
     1
102
RTVSPropertyOp49
 70
     1
102
RTVSPropertyOp50
 70
     1
102
RTVSPropertyOp51
 70
     0
102
RTVSPropertyOp52
 70
     0
102
RTVSPropertyOp53
 70
     1
102
RTVSPropertyOp54
 70
     1
102
RTVSPropertyOp55
 70
     1
102
RTVSPropertyOp56
 70
     1
102
RTVSPropertyOp57
 70
     1
102
RTVSPropertyOp58
 70
     1
102
RTVSPropertyOp59
 70
     1
102
RTVSPropertyOp60
 70
     1
102
RTVSPropertyOp61
 70
     1
102
RTVSPropertyOp62
 70
     1
  0
ENDSEC
  0
EOF
